0
SECTION
2
ENTITIES
999
Created by Tiny3D 1.7.0
0
3DFACE
8
ball - ball_partition
62
10
10
-3.000000
20
1.600000
30
0.000000
11
-3.000000
21
4.000000
31
2.400000
12
-0.600000
22
4.000000
32
0.000000
13
-0.600000
23
4.000000
33
0.000000
0
3DFACE
8
ball - ball_partition
62
10
10
-3.000000
20
1.600000
30
0.000000
11
-5.400000
21
4.000000
31
-0.000000
12
-3.000000
22
4.000000
32
2.400000
13
-3.000000
23
4.000000
33
2.400000
0
3DFACE
8
ball - ball_partition
62
10
10
-3.000000
20
1.600000
30
0.000000
11
-3.000000
21
4.000000
31
-2.400000
12
-5.400000
22
4.000000
32
-0.000000
13
-5.400000
23
4.000000
33
-0.000000
0
3DFACE
8
ball - ball_partition
62
10
10
-3.000000
20
1.600000
30
0.000000
11
-0.600000
21
4.000000
31
0.000000
12
-3.000000
22
4.000000
32
-2.400000
13
-3.000000
23
4.000000
33
-2.400000
0
3DFACE
8
ball - ball_partition
62
10
10
-3.000000
20
6.400000
30
0.000000
11
-3.000000
21
4.000000
31
-2.400000
12
-0.600000
22
4.000000
32
0.000000
13
-0.600000
23
4.000000
33
0.000000
0
3DFACE
8
ball - ball_partition
62
10
10
-3.000000
20
6.400000
30
0.000000
11
-5.400000
21
4.000000
31
-0.000000
12
-3.000000
22
4.000000
32
-2.400000
13
-3.000000
23
4.000000
33
-2.400000
0
3DFACE
8
ball - ball_partition
62
10
10
-3.000000
20
6.400000
30
0.000000
11
-3.000000
21
4.000000
31
2.400000
12
-5.400000
22
4.000000
32
-0.000000
13
-5.400000
23
4.000000
33
-0.000000
0
3DFACE
8
ball - ball_partition
62
10
10
-3.000000
20
6.400000
30
0.000000
11
-0.600000
21
4.000000
31
0.000000
12
-3.000000
22
4.000000
32
2.400000
13
-3.000000
23
4.000000
33
2.400000
0
3DFACE
8
ball - ball_partition
62
10
10
-3.000000
20
-6.400000
30
0.000000
11
-2.510180
21
-6.347554
31
0.095211
12
-2.501012
22
-6.347554
32
0.000000
13
-2.501012
23
-6.347554
33
0.000000
0
3DFACE
8
ball - ball_partition
62
10
10
-3.000000
20
-6.400000
30
0.000000
11
-2.537346
21
-6.347554
31
0.186924
12
-2.510180
22
-6.347554
32
0.095211
13
-2.510180
23
-6.347554
33
0.095211
0
3DFACE
8
ball - ball_partition
62
10
10
-3.000000
20
-6.400000
30
0.000000
11
-2.581513
21
-6.347554
31
0.271768
12
-2.537346
22
-6.347554
32
0.186924
13
-2.537346
23
-6.347554
33
0.186924
0
3DFACE
8
ball - ball_partition
62
10
10
-3.000000
20
-6.400000
30
0.000000
11
-2.647162
21
-6.347554
31
0.352838
12
-2.581513
22
-6.347554
32
0.271768
13
-2.581513
23
-6.347554
33
0.271768
0
3DFACE
8
ball - ball_partition
62
10
10
-3.000000
20
-6.400000
30
0.000000
11
-2.720969
21
-6.347554
31
0.413680
12
-2.647162
22
-6.347554
32
0.352838
13
-2.647162
23
-6.347554
33
0.352838
0
3DFACE
8
ball - ball_partition
62
10
10
-3.000000
20
-6.400000
30
0.000000
11
-2.805030
21
-6.347554
31
0.459321
12
-2.720969
22
-6.347554
32
0.413680
13
-2.720969
23
-6.347554
33
0.413680
0
3DFACE
8
ball - ball_partition
62
10
10
-3.000000
20
-6.400000
30
0.000000
11
-2.896255
21
-6.347554
31
0.488084
12
-2.805030
22
-6.347554
32
0.459321
13
-2.805030
23
-6.347554
33
0.459321
0
3DFACE
8
ball - ball_partition
62
10
10
-3.000000
20
-6.400000
30
0.000000
11
-3.000000
21
-6.347554
31
0.498988
12
-2.896255
22
-6.347554
32
0.488084
13
-2.896255
23
-6.347554
33
0.488084
0
3DFACE
8
ball - ball_partition
62
10
10
-3.000000
20
-6.400000
30
0.000000
11
-3.095212
21
-6.347554
31
0.489820
12
-3.000000
22
-6.347554
32
0.498988
13
-3.000000
23
-6.347554
33
0.498988
0
3DFACE
8
ball - ball_partition
62
10
10
-3.000000
20
-6.400000
30
0.000000
11
-3.186924
21
-6.347554
31
0.462654
12
-3.095212
22
-6.347554
32
0.489820
13
-3.095212
23
-6.347554
33
0.489820
0
3DFACE
8
ball - ball_partition
62
10
10
-3.000000
20
-6.400000
30
0.000000
11
-3.271768
21
-6.347554
31
0.418487
12
-3.186924
22
-6.347554
32
0.462654
13
-3.186924
23
-6.347554
33
0.462654
0
3DFACE
8
ball - ball_partition
62
10
10
-3.000000
20
-6.400000
30
0.000000
11
-3.352838
21
-6.347554
31
0.352838
12
-3.271768
22
-6.347554
32
0.418487
13
-3.271768
23
-6.347554
33
0.418487
0
3DFACE
8
ball - ball_partition
62
10
10
-3.000000
20
-6.400000
30
0.000000
11
-3.413680
21
-6.347554
31
0.279031
12
-3.352838
22
-6.347554
32
0.352838
13
-3.352838
23
-6.347554
33
0.352838
0
3DFACE
8
ball - ball_partition
62
10
10
-3.000000
20
-6.400000
30
0.000000
11
-3.459321
21
-6.347554
31
0.194970
12
-3.413680
22
-6.347554
32
0.279031
13
-3.413680
23
-6.347554
33
0.279031
0
3DFACE
8
ball - ball_partition
62
10
10
-3.000000
20
-6.400000
30
0.000000
11
-3.488084
21
-6.347554
31
0.103745
12
-3.459321
22
-6.347554
32
0.194970
13
-3.459321
23
-6.347554
33
0.194970
0
3DFACE
8
ball - ball_partition
62
10
10
-3.000000
20
-6.400000
30
0.000000
11
-3.498988
21
-6.347554
31
-0.000000
12
-3.488084
22
-6.347554
32
0.103745
13
-3.488084
23
-6.347554
33
0.103745
0
3DFACE
8
ball - ball_partition
62
10
10
-3.000000
20
-6.400000
30
0.000000
11
-3.489820
21
-6.347554
31
-0.095211
12
-3.498988
22
-6.347554
32
-0.000000
13
-3.498988
23
-6.347554
33
-0.000000
0
3DFACE
8
ball - ball_partition
62
10
10
-3.000000
20
-6.400000
30
0.000000
11
-3.462654
21
-6.347554
31
-0.186924
12
-3.489820
22
-6.347554
32
-0.095211
13
-3.489820
23
-6.347554
33
-0.095211
0
3DFACE
8
ball - ball_partition
62
10
10
-3.000000
20
-6.400000
30
0.000000
11
-3.418487
21
-6.347554
31
-0.271768
12
-3.462654
22
-6.347554
32
-0.186924
13
-3.462654
23
-6.347554
33
-0.186924
0
3DFACE
8
ball - ball_partition
62
10
10
-3.000000
20
-6.400000
30
0.000000
11
-3.352838
21
-6.347554
31
-0.352838
12
-3.418487
22
-6.347554
32
-0.271768
13
-3.418487
23
-6.347554
33
-0.271768
0
3DFACE
8
ball - ball_partition
62
10
10
-3.000000
20
-6.400000
30
0.000000
11
-3.279031
21
-6.347554
31
-0.413680
12
-3.352838
22
-6.347554
32
-0.352838
13
-3.352838
23
-6.347554
33
-0.352838
0
3DFACE
8
ball - ball_partition
62
10
10
-3.000000
20
-6.400000
30
0.000000
11
-3.194970
21
-6.347554
31
-0.459321
12
-3.279031
22
-6.347554
32
-0.413680
13
-3.279031
23
-6.347554
33
-0.413680
0
3DFACE
8
ball - ball_partition
62
10
10
-3.000000
20
-6.400000
30
0.000000
11
-3.103745
21
-6.347554
31
-0.488084
12
-3.194970
22
-6.347554
32
-0.459321
13
-3.194970
23
-6.347554
33
-0.459321
0
3DFACE
8
ball - ball_partition
62
10
10
-3.000000
20
-6.400000
30
0.000000
11
-3.000000
21
-6.347554
31
-0.498988
12
-3.103745
22
-6.347554
32
-0.488084
13
-3.103745
23
-6.347554
33
-0.488084
0
3DFACE
8
ball - ball_partition
62
10
10
-3.000000
20
-6.400000
30
0.000000
11
-2.904789
21
-6.347554
31
-0.489820
12
-3.000000
22
-6.347554
32
-0.498988
13
-3.000000
23
-6.347554
33
-0.498988
0
3DFACE
8
ball - ball_partition
62
10
10
-3.000000
20
-6.400000
30
0.000000
11
-2.813076
21
-6.347554
31
-0.462654
12
-2.904789
22
-6.347554
32
-0.489820
13
-2.904789
23
-6.347554
33
-0.489820
0
3DFACE
8
ball - ball_partition
62
10
10
-3.000000
20
-6.400000
30
0.000000
11
-2.728232
21
-6.347554
31
-0.418487
12
-2.813076
22
-6.347554
32
-0.462654
13
-2.813076
23
-6.347554
33
-0.462654
0
3DFACE
8
ball - ball_partition
62
10
10
-3.000000
20
-6.400000
30
0.000000
11
-2.647162
21
-6.347554
31
-0.352838
12
-2.728232
22
-6.347554
32
-0.418487
13
-2.728232
23
-6.347554
33
-0.418487
0
3DFACE
8
ball - ball_partition
62
10
10
-3.000000
20
-6.400000
30
0.000000
11
-2.586320
21
-6.347554
31
-0.279030
12
-2.647162
22
-6.347554
32
-0.352838
13
-2.647162
23
-6.347554
33
-0.352838
0
3DFACE
8
ball - ball_partition
62
10
10
-3.000000
20
-6.400000
30
0.000000
11
-2.540679
21
-6.347554
31
-0.194970
12
-2.586320
22
-6.347554
32
-0.279030
13
-2.586320
23
-6.347554
33
-0.279030
0
3DFACE
8
ball - ball_partition
62
10
10
-3.000000
20
-6.400000
30
0.000000
11
-2.511916
21
-6.347554
31
-0.103745
12
-2.540679
22
-6.347554
32
-0.194970
13
-2.540679
23
-6.347554
33
-0.194970
0
3DFACE
8
ball - ball_partition
62
10
10
-3.000000
20
-6.400000
30
0.000000
11
-2.501012
21
-6.347554
31
0.000000
12
-2.511916
22
-6.347554
32
-0.103745
13
-2.511916
23
-6.347554
33
-0.103745
0
3DFACE
8
ball - ball_partition
62
10
62
10
10
-2.079474
20
-6.209212
30
0.178932
11
-2.062245
21
-6.209212
31
0.000000
12
-2.501012
22
-6.347554
32
0.000000
13
-2.510180
23
-6.347554
33
0.095211
0
3DFACE
8
ball - ball_partition
62
10
62
10
10
-2.130529
20
-6.209212
30
0.351289
11
-2.079474
21
-6.209212
31
0.178932
12
-2.510180
22
-6.347554
32
0.095211
13
-2.537346
23
-6.347554
33
0.186924
0
3DFACE
8
ball - ball_partition
62
10
62
10
10
-2.213533
20
-6.209212
30
0.510738
11
-2.130529
21
-6.209212
31
0.351289
12
-2.537346
22
-6.347554
32
0.186924
13
-2.581513
23
-6.347554
33
0.271768
0
3DFACE
8
ball - ball_partition
62
10
62
10
10
-2.336907
20
-6.209212
30
0.663093
11
-2.213533
21
-6.209212
31
0.510738
12
-2.581513
22
-6.347554
32
0.271768
13
-2.647162
23
-6.347554
33
0.352838
0
3DFACE
8
ball - ball_partition
62
10
62
10
10
-2.475614
20
-6.209212
30
0.777434
11
-2.336907
21
-6.209212
31
0.663093
12
-2.647162
22
-6.347554
32
0.352838
13
-2.720969
23
-6.347554
33
0.413680
0
3DFACE
8
ball - ball_partition
62
10
62
10
10
-2.633590
20
-6.209212
30
0.863208
11
-2.475614
21
-6.209212
31
0.777434
12
-2.720969
22
-6.347554
32
0.413680
13
-2.805030
23
-6.347554
33
0.459321
0
3DFACE
8
ball - ball_partition
62
10
62
10
10
-2.805030
20
-6.209212
30
0.917262
11
-2.633590
21
-6.209212
31
0.863208
12
-2.805030
22
-6.347554
32
0.459321
13
-2.896255
23
-6.347554
33
0.488084
0
3DFACE
8
ball - ball_partition
62
10
62
10
10
-3.000000
20
-6.209212
30
0.937755
11
-2.805030
21
-6.209212
31
0.917262
12
-2.896255
22
-6.347554
32
0.488084
13
-3.000000
23
-6.347554
33
0.498988
0
3DFACE
8
ball - ball_partition
62
10
62
10
10
-3.178932
20
-6.209212
30
0.920525
11
-3.000000
21
-6.209212
31
0.937755
12
-3.000000
22
-6.347554
32
0.498988
13
-3.095212
23
-6.347554
33
0.489820
0
3DFACE
8
ball - ball_partition
62
10
62
10
10
-3.351289
20
-6.209212
30
0.869471
11
-3.178932
21
-6.209212
31
0.920525
12
-3.095212
22
-6.347554
32
0.489820
13
-3.186924
23
-6.347554
33
0.462654
0
3DFACE
8
ball - ball_partition
62
10
62
10
10
-3.510738
20
-6.209212
30
0.786467
11
-3.351289
21
-6.209212
31
0.869471
12
-3.186924
22
-6.347554
32
0.462654
13
-3.271768
23
-6.347554
33
0.418487
0
3DFACE
8
ball - ball_partition
62
10
62
10
10
-3.663093
20
-6.209212
30
0.663093
11
-3.510738
21
-6.209212
31
0.786467
12
-3.271768
22
-6.347554
32
0.418487
13
-3.352838
23
-6.347554
33
0.352838
0
3DFACE
8
ball - ball_partition
62
10
62
10
10
-3.777434
20
-6.209212
30
0.524386
11
-3.663093
21
-6.209212
31
0.663093
12
-3.352838
22
-6.347554
32
0.352838
13
-3.413680
23
-6.347554
33
0.279031
0
3DFACE
8
ball - ball_partition
62
10
62
10
10
-3.863208
20
-6.209212
30
0.366410
11
-3.777434
21
-6.209212
31
0.524386
12
-3.413680
22
-6.347554
32
0.279031
13
-3.459321
23
-6.347554
33
0.194970
0
3DFACE
8
ball - ball_partition
62
10
62
10
10
-3.917263
20
-6.209212
30
0.194970
11
-3.863208
21
-6.209212
31
0.366410
12
-3.459321
22
-6.347554
32
0.194970
13
-3.488084
23
-6.347554
33
0.103745
0
3DFACE
8
ball - ball_partition
62
10
62
10
10
-3.937755
20
-6.209212
30
-0.000000
11
-3.917263
21
-6.209212
31
0.194970
12
-3.488084
22
-6.347554
32
0.103745
13
-3.498988
23
-6.347554
33
-0.000000
0
3DFACE
8
ball - ball_partition
62
10
62
10
10
-3.920526
20
-6.209212
30
-0.178932
11
-3.937755
21
-6.209212
31
-0.000000
12
-3.498988
22
-6.347554
32
-0.000000
13
-3.489820
23
-6.347554
33
-0.095211
0
3DFACE
8
ball - ball_partition
62
10
62
10
10
-3.869471
20
-6.209212
30
-0.351289
11
-3.920526
21
-6.209212
31
-0.178932
12
-3.489820
22
-6.347554
32
-0.095211
13
-3.462654
23
-6.347554
33
-0.186924
0
3DFACE
8
ball - ball_partition
62
10
62
10
10
-3.786467
20
-6.209212
30
-0.510738
11
-3.869471
21
-6.209212
31
-0.351289
12
-3.462654
22
-6.347554
32
-0.186924
13
-3.418487
23
-6.347554
33
-0.271768
0
3DFACE
8
ball - ball_partition
62
10
62
10
10
-3.663093
20
-6.209212
30
-0.663093
11
-3.786467
21
-6.209212
31
-0.510738
12
-3.418487
22
-6.347554
32
-0.271768
13
-3.352838
23
-6.347554
33
-0.352838
0
3DFACE
8
ball - ball_partition
62
10
62
10
10
-3.524386
20
-6.209212
30
-0.777434
11
-3.663093
21
-6.209212
31
-0.663093
12
-3.352838
22
-6.347554
32
-0.352838
13
-3.279031
23
-6.347554
33
-0.413680
0
3DFACE
8
ball - ball_partition
62
10
62
10
10
-3.366410
20
-6.209212
30
-0.863208
11
-3.524386
21
-6.209212
31
-0.777434
12
-3.279031
22
-6.347554
32
-0.413680
13
-3.194970
23
-6.347554
33
-0.459321
0
3DFACE
8
ball - ball_partition
62
10
62
10
10
-3.194970
20
-6.209212
30
-0.917262
11
-3.366410
21
-6.209212
31
-0.863208
12
-3.194970
22
-6.347554
32
-0.459321
13
-3.103745
23
-6.347554
33
-0.488084
0
3DFACE
8
ball - ball_partition
62
10
62
10
10
-3.000000
20
-6.209212
30
-0.937755
11
-3.194970
21
-6.209212
31
-0.917262
12
-3.103745
22
-6.347554
32
-0.488084
13
-3.000000
23
-6.347554
33
-0.498988
0
3DFACE
8
ball - ball_partition
62
10
62
10
10
-2.821068
20
-6.209212
30
-0.920525
11
-3.000000
21
-6.209212
31
-0.937755
12
-3.000000
22
-6.347554
32
-0.498988
13
-2.904789
23
-6.347554
33
-0.489820
0
3DFACE
8
ball - ball_partition
62
10
62
10
10
-2.648711
20
-6.209212
30
-0.869471
11
-2.821068
21
-6.209212
31
-0.920525
12
-2.904789
22
-6.347554
32
-0.489820
13
-2.813076
23
-6.347554
33
-0.462654
0
3DFACE
8
ball - ball_partition
62
10
62
10
10
-2.489262
20
-6.209212
30
-0.786467
11
-2.648711
21
-6.209212
31
-0.869471
12
-2.813076
22
-6.347554
32
-0.462654
13
-2.728232
23
-6.347554
33
-0.418487
0
3DFACE
8
ball - ball_partition
62
10
62
10
10
-2.336907
20
-6.209212
30
-0.663093
11
-2.489262
21
-6.209212
31
-0.786467
12
-2.728232
22
-6.347554
32
-0.418487
13
-2.647162
23
-6.347554
33
-0.352838
0
3DFACE
8
ball - ball_partition
62
10
62
10
10
-2.222566
20
-6.209212
30
-0.524386
11
-2.336907
21
-6.209212
31
-0.663093
12
-2.647162
22
-6.347554
32
-0.352838
13
-2.586320
23
-6.347554
33
-0.279030
0
3DFACE
8
ball - ball_partition
62
10
62
10
10
-2.136792
20
-6.209212
30
-0.366410
11
-2.222566
21
-6.209212
31
-0.524386
12
-2.586320
22
-6.347554
32
-0.279030
13
-2.540679
23
-6.347554
33
-0.194970
0
3DFACE
8
ball - ball_partition
62
10
62
10
10
-2.082737
20
-6.209212
30
-0.194970
11
-2.136792
21
-6.209212
31
-0.366410
12
-2.540679
22
-6.347554
32
-0.194970
13
-2.511916
23
-6.347554
33
-0.103745
0
3DFACE
8
ball - ball_partition
62
10
62
10
10
-2.062245
20
-6.209212
30
0.000000
11
-2.082737
21
-6.209212
31
-0.194970
12
-2.511916
22
-6.347554
32
-0.103745
13
-2.501012
23
-6.347554
33
0.000000
0
3DFACE
8
ball - ball_partition
62
10
62
10
10
-1.682594
20
-5.989690
30
0.256078
11
-1.657937
21
-5.989690
31
0.000000
12
-2.062245
22
-6.209212
32
0.000000
13
-2.079474
23
-6.209212
33
0.178932
0
3DFACE
8
ball - ball_partition
62
10
62
10
10
-1.755661
20
-5.989690
30
0.502746
11
-1.682594
21
-5.989690
31
0.256078
12
-2.079474
22
-6.209212
32
0.178932
13
-2.130529
23
-6.209212
33
0.351289
0
3DFACE
8
ball - ball_partition
62
10
62
10
10
-1.874451
20
-5.989690
30
0.730940
11
-1.755661
21
-5.989690
31
0.502746
12
-2.130529
22
-6.209212
32
0.351289
13
-2.213533
23
-6.209212
33
0.510738
0
3DFACE
8
ball - ball_partition
62
10
62
10
10
-2.051018
20
-5.989690
30
0.948982
11
-1.874451
21
-5.989690
31
0.730940
12
-2.213533
22
-6.209212
32
0.510738
13
-2.336907
23
-6.209212
33
0.663093
0
3DFACE
8
ball - ball_partition
62
10
62
10
10
-2.249528
20
-5.989690
30
1.112621
11
-2.051018
21
-5.989690
31
0.948982
12
-2.336907
22
-6.209212
32
0.663093
13
-2.475614
23
-6.209212
33
0.777434
0
3DFACE
8
ball - ball_partition
62
10
62
10
10
-2.475614
20
-5.989690
30
1.235376
11
-2.249528
21
-5.989690
31
1.112621
12
-2.475614
22
-6.209212
32
0.777434
13
-2.633590
23
-6.209212
33
0.863208
0
3DFACE
8
ball - ball_partition
62
10
62
10
10
-2.720969
20
-5.989690
30
1.312736
11
-2.475614
21
-5.989690
31
1.235376
12
-2.633590
22
-6.209212
32
0.863208
13
-2.805030
23
-6.209212
33
0.917262
0
3DFACE
8
ball - ball_partition
62
10
62
10
10
-3.000000
20
-5.989690
30
1.342063
11
-2.720969
21
-5.989690
31
1.312736
12
-2.805030
22
-6.209212
32
0.917262
13
-3.000000
23
-6.209212
33
0.937755
0
3DFACE
8
ball - ball_partition
62
10
62
10
10
-3.256078
20
-5.989690
30
1.317406
11
-3.000000
21
-5.989690
31
1.342063
12
-3.000000
22
-6.209212
32
0.937755
13
-3.178932
23
-6.209212
33
0.920525
0
3DFACE
8
ball - ball_partition
62
10
62
10
10
-3.502746
20
-5.989690
30
1.244339
11
-3.256078
21
-5.989690
31
1.317406
12
-3.178932
22
-6.209212
32
0.920525
13
-3.351289
23
-6.209212
33
0.869471
0
3DFACE
8
ball - ball_partition
62
10
62
10
10
-3.730940
20
-5.989690
30
1.125549
11
-3.502746
21
-5.989690
31
1.244339
12
-3.351289
22
-6.209212
32
0.869471
13
-3.510738
23
-6.209212
33
0.786467
0
3DFACE
8
ball - ball_partition
62
10
62
10
10
-3.948982
20
-5.989690
30
0.948982
11
-3.730940
21
-5.989690
31
1.125549
12
-3.510738
22
-6.209212
32
0.786467
13
-3.663093
23
-6.209212
33
0.663093
0
3DFACE
8
ball - ball_partition
62
10
62
10
10
-4.112621
20
-5.989690
30
0.750472
11
-3.948982
21
-5.989690
31
0.948982
12
-3.663093
22
-6.209212
32
0.663093
13
-3.777434
23
-6.209212
33
0.524386
0
3DFACE
8
ball - ball_partition
62
10
62
10
10
-4.235375
20
-5.989690
30
0.524386
11
-4.112621
21
-5.989690
31
0.750472
12
-3.777434
22
-6.209212
32
0.524386
13
-3.863208
23
-6.209212
33
0.366410
0
3DFACE
8
ball - ball_partition
62
10
62
10
10
-4.312736
20
-5.989690
30
0.279030
11
-4.235375
21
-5.989690
31
0.524386
12
-3.863208
22
-6.209212
32
0.366410
13
-3.917263
23
-6.209212
33
0.194970
0
3DFACE
8
ball - ball_partition
62
10
62
10
10
-4.342063
20
-5.989690
30
-0.000000
11
-4.312736
21
-5.989690
31
0.279030
12
-3.917263
22
-6.209212
32
0.194970
13
-3.937755
23
-6.209212
33
-0.000000
0
3DFACE
8
ball - ball_partition
62
10
62
10
10
-4.317406
20
-5.989690
30
-0.256078
11
-4.342063
21
-5.989690
31
-0.000000
12
-3.937755
22
-6.209212
32
-0.000000
13
-3.920526
23
-6.209212
33
-0.178932
0
3DFACE
8
ball - ball_partition
62
10
62
10
10
-4.244339
20
-5.989690
30
-0.502746
11
-4.317406
21
-5.989690
31
-0.256078
12
-3.920526
22
-6.209212
32
-0.178932
13
-3.869471
23
-6.209212
33
-0.351289
0
3DFACE
8
ball - ball_partition
62
10
62
10
10
-4.125549
20
-5.989690
30
-0.730940
11
-4.244339
21
-5.989690
31
-0.502746
12
-3.869471
22
-6.209212
32
-0.351289
13
-3.786467
23
-6.209212
33
-0.510738
0
3DFACE
8
ball - ball_partition
62
10
62
10
10
-3.948982
20
-5.989690
30
-0.948982
11
-4.125549
21
-5.989690
31
-0.730940
12
-3.786467
22
-6.209212
32
-0.510738
13
-3.663093
23
-6.209212
33
-0.663093
0
3DFACE
8
ball - ball_partition
62
10
62
10
10
-3.750472
20
-5.989690
30
-1.112621
11
-3.948982
21
-5.989690
31
-0.948982
12
-3.663093
22
-6.209212
32
-0.663093
13
-3.524386
23
-6.209212
33
-0.777434
0
3DFACE
8
ball - ball_partition
62
10
62
10
10
-3.524386
20
-5.989690
30
-1.235375
11
-3.750472
21
-5.989690
31
-1.112621
12
-3.524386
22
-6.209212
32
-0.777434
13
-3.366410
23
-6.209212
33
-0.863208
0
3DFACE
8
ball - ball_partition
62
10
62
10
10
-3.279031
20
-5.989690
30
-1.312736
11
-3.524386
21
-5.989690
31
-1.235375
12
-3.366410
22
-6.209212
32
-0.863208
13
-3.194970
23
-6.209212
33
-0.917262
0
3DFACE
8
ball - ball_partition
62
10
62
10
10
-3.000000
20
-5.989690
30
-1.342063
11
-3.279031
21
-5.989690
31
-1.312736
12
-3.194970
22
-6.209212
32
-0.917262
13
-3.000000
23
-6.209212
33
-0.937755
0
3DFACE
8
ball - ball_partition
62
10
62
10
10
-2.743922
20
-5.989690
30
-1.317406
11
-3.000000
21
-5.989690
31
-1.342063
12
-3.000000
22
-6.209212
32
-0.937755
13
-2.821068
23
-6.209212
33
-0.920525
0
3DFACE
8
ball - ball_partition
62
10
62
10
10
-2.497254
20
-5.989690
30
-1.244339
11
-2.743922
21
-5.989690
31
-1.317406
12
-2.821068
22
-6.209212
32
-0.920525
13
-2.648711
23
-6.209212
33
-0.869471
0
3DFACE
8
ball - ball_partition
62
10
62
10
10
-2.269060
20
-5.989690
30
-1.125549
11
-2.497254
21
-5.989690
31
-1.244339
12
-2.648711
22
-6.209212
32
-0.869471
13
-2.489262
23
-6.209212
33
-0.786467
0
3DFACE
8
ball - ball_partition
62
10
62
10
10
-2.051018
20
-5.989690
30
-0.948982
11
-2.269060
21
-5.989690
31
-1.125549
12
-2.489262
22
-6.209212
32
-0.786467
13
-2.336907
23
-6.209212
33
-0.663093
0
3DFACE
8
ball - ball_partition
62
10
62
10
10
-1.887379
20
-5.989690
30
-0.750472
11
-2.051018
21
-5.989690
31
-0.948982
12
-2.336907
22
-6.209212
32
-0.663093
13
-2.222566
23
-6.209212
33
-0.524386
0
3DFACE
8
ball - ball_partition
62
10
62
10
10
-1.764624
20
-5.989690
30
-0.524386
11
-1.887379
21
-5.989690
31
-0.750472
12
-2.222566
22
-6.209212
32
-0.524386
13
-2.136792
23
-6.209212
33
-0.366410
0
3DFACE
8
ball - ball_partition
62
10
62
10
10
-1.687264
20
-5.989690
30
-0.279031
11
-1.764624
21
-5.989690
31
-0.524386
12
-2.136792
22
-6.209212
32
-0.366410
13
-2.082737
23
-6.209212
33
-0.194970
0
3DFACE
8
ball - ball_partition
62
10
62
10
10
-1.657937
20
-5.989690
30
0.000000
11
-1.687264
21
-5.989690
31
-0.279031
12
-2.082737
22
-6.209212
32
-0.194970
13
-2.062245
23
-6.209212
33
0.000000
0
3DFACE
8
ball - ball_partition
62
10
62
10
10
-1.334123
20
-5.697056
30
0.323814
11
-1.302944
21
-5.697056
31
0.000000
12
-1.657937
22
-5.989690
32
0.000000
13
-1.682594
23
-5.989690
33
0.256078
0
3DFACE
8
ball - ball_partition
62
10
62
10
10
-1.426517
20
-5.697056
30
0.635728
11
-1.334123
21
-5.697056
31
0.323814
12
-1.682594
22
-5.989690
32
0.256078
13
-1.755661
23
-5.989690
33
0.502746
0
3DFACE
8
ball - ball_partition
62
10
62
10
10
-1.576729
20
-5.697056
30
0.924283
11
-1.426517
21
-5.697056
31
0.635728
12
-1.755661
22
-5.989690
32
0.502746
13
-1.874451
23
-5.989690
33
0.730940
0
3DFACE
8
ball - ball_partition
62
10
62
10
10
-1.800000
20
-5.697056
30
1.200000
11
-1.576729
21
-5.697056
31
0.924283
12
-1.874451
22
-5.989690
32
0.730940
13
-2.051018
23
-5.989690
33
0.948982
0
3DFACE
8
ball - ball_partition
62
10
62
10
10
-2.051018
20
-5.697056
30
1.406923
11
-1.800000
21
-5.697056
31
1.200000
12
-2.051018
22
-5.989690
32
0.948982
13
-2.249528
23
-5.989690
33
1.112621
0
3DFACE
8
ball - ball_partition
62
10
62
10
10
-2.336907
20
-5.697056
30
1.562149
11
-2.051018
21
-5.697056
31
1.406923
12
-2.249528
22
-5.989690
32
1.112621
13
-2.475614
23
-5.989690
33
1.235376
0
3DFACE
8
ball - ball_partition
62
10
62
10
10
-2.647162
20
-5.697056
30
1.659972
11
-2.336907
21
-5.697056
31
1.562149
12
-2.475614
22
-5.989690
32
1.235376
13
-2.720969
23
-5.989690
33
1.312736
0
3DFACE
8
ball - ball_partition
62
10
62
10
10
-3.000000
20
-5.697056
30
1.697056
11
-2.647162
21
-5.697056
31
1.659972
12
-2.720969
22
-5.989690
32
1.312736
13
-3.000000
23
-5.989690
33
1.342063
0
3DFACE
8
ball - ball_partition
62
10
62
10
10
-3.323814
20
-5.697056
30
1.665877
11
-3.000000
21
-5.697056
31
1.697056
12
-3.000000
22
-5.989690
32
1.342063
13
-3.256078
23
-5.989690
33
1.317406
0
3DFACE
8
ball - ball_partition
62
10
62
10
10
-3.635728
20
-5.697056
30
1.573483
11
-3.323814
21
-5.697056
31
1.665877
12
-3.256078
22
-5.989690
32
1.317406
13
-3.502746
23
-5.989690
33
1.244339
0
3DFACE
8
ball - ball_partition
62
10
62
10
10
-3.924283
20
-5.697056
30
1.423271
11
-3.635728
21
-5.697056
31
1.573483
12
-3.502746
22
-5.989690
32
1.244339
13
-3.730940
23
-5.989690
33
1.125549
0
3DFACE
8
ball - ball_partition
62
10
62
10
10
-4.200000
20
-5.697056
30
1.200000
11
-3.924283
21
-5.697056
31
1.423271
12
-3.730940
22
-5.989690
32
1.125549
13
-3.948982
23
-5.989690
33
0.948982
0
3DFACE
8
ball - ball_partition
62
10
62
10
10
-4.406923
20
-5.697056
30
0.948982
11
-4.200000
21
-5.697056
31
1.200000
12
-3.948982
22
-5.989690
32
0.948982
13
-4.112621
23
-5.989690
33
0.750472
0
3DFACE
8
ball - ball_partition
62
10
62
10
10
-4.562149
20
-5.697056
30
0.663093
11
-4.406923
21
-5.697056
31
0.948982
12
-4.112621
22
-5.989690
32
0.750472
13
-4.235375
23
-5.989690
33
0.524386
0
3DFACE
8
ball - ball_partition
62
10
62
10
10
-4.659972
20
-5.697056
30
0.352838
11
-4.562149
21
-5.697056
31
0.663093
12
-4.235375
22
-5.989690
32
0.524386
13
-4.312736
23
-5.989690
33
0.279030
0
3DFACE
8
ball - ball_partition
62
10
62
10
10
-4.697056
20
-5.697056
30
-0.000000
11
-4.659972
21
-5.697056
31
0.352838
12
-4.312736
22
-5.989690
32
0.279030
13
-4.342063
23
-5.989690
33
-0.000000
0
3DFACE
8
ball - ball_partition
62
10
62
10
10
-4.665877
20
-5.697056
30
-0.323814
11
-4.697056
21
-5.697056
31
-0.000000
12
-4.342063
22
-5.989690
32
-0.000000
13
-4.317406
23
-5.989690
33
-0.256078
0
3DFACE
8
ball - ball_partition
62
10
62
10
10
-4.573483
20
-5.697056
30
-0.635729
11
-4.665877
21
-5.697056
31
-0.323814
12
-4.317406
22
-5.989690
32
-0.256078
13
-4.244339
23
-5.989690
33
-0.502746
0
3DFACE
8
ball - ball_partition
62
10
62
10
10
-4.423271
20
-5.697056
30
-0.924283
11
-4.573483
21
-5.697056
31
-0.635729
12
-4.244339
22
-5.989690
32
-0.502746
13
-4.125549
23
-5.989690
33
-0.730940
0
3DFACE
8
ball - ball_partition
62
10
62
10
10
-4.200000
20
-5.697056
30
-1.200000
11
-4.423271
21
-5.697056
31
-0.924283
12
-4.125549
22
-5.989690
32
-0.730940
13
-3.948982
23
-5.989690
33
-0.948982
0
3DFACE
8
ball - ball_partition
62
10
62
10
10
-3.948982
20
-5.697056
30
-1.406924
11
-4.200000
21
-5.697056
31
-1.200000
12
-3.948982
22
-5.989690
32
-0.948982
13
-3.750472
23
-5.989690
33
-1.112621
0
3DFACE
8
ball - ball_partition
62
10
62
10
10
-3.663093
20
-5.697056
30
-1.562148
11
-3.948982
21
-5.697056
31
-1.406924
12
-3.750472
22
-5.989690
32
-1.112621
13
-3.524386
23
-5.989690
33
-1.235375
0
3DFACE
8
ball - ball_partition
62
10
62
10
10
-3.352838
20
-5.697056
30
-1.659971
11
-3.663093
21
-5.697056
31
-1.562148
12
-3.524386
22
-5.989690
32
-1.235375
13
-3.279031
23
-5.989690
33
-1.312736
0
3DFACE
8
ball - ball_partition
62
10
62
10
10
-3.000000
20
-5.697056
30
-1.697056
11
-3.352838
21
-5.697056
31
-1.659971
12
-3.279031
22
-5.989690
32
-1.312736
13
-3.000000
23
-5.989690
33
-1.342063
0
3DFACE
8
ball - ball_partition
62
10
62
10
10
-2.676187
20
-5.697056
30
-1.665877
11
-3.000000
21
-5.697056
31
-1.697056
12
-3.000000
22
-5.989690
32
-1.342063
13
-2.743922
23
-5.989690
33
-1.317406
0
3DFACE
8
ball - ball_partition
62
10
62
10
10
-2.364271
20
-5.697056
30
-1.573483
11
-2.676187
21
-5.697056
31
-1.665877
12
-2.743922
22
-5.989690
32
-1.317406
13
-2.497254
23
-5.989690
33
-1.244339
0
3DFACE
8
ball - ball_partition
62
10
62
10
10
-2.075717
20
-5.697056
30
-1.423271
11
-2.364271
21
-5.697056
31
-1.573483
12
-2.497254
22
-5.989690
32
-1.244339
13
-2.269060
23
-5.989690
33
-1.125549
0
3DFACE
8
ball - ball_partition
62
10
62
10
10
-1.800000
20
-5.697056
30
-1.200000
11
-2.075717
21
-5.697056
31
-1.423271
12
-2.269060
22
-5.989690
32
-1.125549
13
-2.051018
23
-5.989690
33
-0.948982
0
3DFACE
8
ball - ball_partition
62
10
62
10
10
-1.593076
20
-5.697056
30
-0.948982
11
-1.800000
21
-5.697056
31
-1.200000
12
-2.051018
22
-5.989690
32
-0.948982
13
-1.887379
23
-5.989690
33
-0.750472
0
3DFACE
8
ball - ball_partition
62
10
62
10
10
-1.437851
20
-5.697056
30
-0.663093
11
-1.593076
21
-5.697056
31
-0.948982
12
-1.887379
22
-5.989690
32
-0.750472
13
-1.764624
23
-5.989690
33
-0.524386
0
3DFACE
8
ball - ball_partition
62
10
62
10
10
-1.340028
20
-5.697056
30
-0.352838
11
-1.437851
21
-5.697056
31
-0.663093
12
-1.764624
22
-5.989690
32
-0.524386
13
-1.687264
23
-5.989690
33
-0.279031
0
3DFACE
8
ball - ball_partition
62
10
62
10
10
-1.302944
20
-5.697056
30
0.000000
11
-1.340028
21
-5.697056
31
-0.352838
12
-1.687264
22
-5.989690
32
-0.279031
13
-1.657937
23
-5.989690
33
0.000000
0
3DFACE
8
ball - ball_partition
62
10
62
10
10
-1.024171
20
-5.307134
30
0.384062
11
-0.987190
21
-5.307134
31
0.000000
12
-1.302944
22
-5.697056
32
0.000000
13
-1.334123
23
-5.697056
33
0.323814
0
3DFACE
8
ball - ball_partition
62
10
62
10
10
-1.133756
20
-5.307134
30
0.754012
11
-1.024171
21
-5.307134
31
0.384062
12
-1.334123
22
-5.697056
32
0.323814
13
-1.426517
23
-5.697056
33
0.635728
0
3DFACE
8
ball - ball_partition
62
10
62
10
10
-1.311916
20
-5.307134
30
1.096255
11
-1.133756
21
-5.307134
31
0.754012
12
-1.426517
22
-5.697056
32
0.635728
13
-1.576729
23
-5.697056
33
0.924283
0
3DFACE
8
ball - ball_partition
62
10
62
10
10
-1.576729
20
-5.307134
30
1.423271
11
-1.311916
21
-5.307134
31
1.096255
12
-1.576729
22
-5.697056
32
0.924283
13
-1.800000
23
-5.697056
33
1.200000
0
3DFACE
8
ball - ball_partition
62
10
62
10
10
-1.874451
20
-5.307134
30
1.668695
11
-1.576729
21
-5.307134
31
1.423271
12
-1.800000
22
-5.697056
32
1.200000
13
-2.051018
23
-5.697056
33
1.406923
0
3DFACE
8
ball - ball_partition
62
10
62
10
10
-2.213533
20
-5.307134
30
1.852801
11
-1.874451
21
-5.307134
31
1.668695
12
-2.051018
22
-5.697056
32
1.406923
13
-2.336907
23
-5.697056
33
1.562149
0
3DFACE
8
ball - ball_partition
62
10
62
10
10
-2.581513
20
-5.307134
30
1.968825
11
-2.213533
21
-5.307134
31
1.852801
12
-2.336907
22
-5.697056
32
1.562149
13
-2.647162
23
-5.697056
33
1.659972
0
3DFACE
8
ball - ball_partition
62
10
62
10
10
-3.000000
20
-5.307134
30
2.012810
11
-2.581513
21
-5.307134
31
1.968825
12
-2.647162
22
-5.697056
32
1.659972
13
-3.000000
23
-5.697056
33
1.697056
0
3DFACE
8
ball - ball_partition
62
10
62
10
10
-3.384062
20
-5.307134
30
1.975828
11
-3.000000
21
-5.307134
31
2.012810
12
-3.000000
22
-5.697056
32
1.697056
13
-3.323814
23
-5.697056
33
1.665877
0
3DFACE
8
ball - ball_partition
62
10
62
10
10
-3.754012
20
-5.307134
30
1.866244
11
-3.384062
21
-5.307134
31
1.975828
12
-3.323814
22
-5.697056
32
1.665877
13
-3.635728
23
-5.697056
33
1.573483
0
3DFACE
8
ball - ball_partition
62
10
62
10
10
-4.096254
20
-5.307134
30
1.688084
11
-3.754012
21
-5.307134
31
1.866244
12
-3.635728
22
-5.697056
32
1.573483
13
-3.924283
23
-5.697056
33
1.423271
0
3DFACE
8
ball - ball_partition
62
10
62
10
10
-4.423271
20
-5.307134
30
1.423271
11
-4.096254
21
-5.307134
31
1.688084
12
-3.924283
22
-5.697056
32
1.423271
13
-4.200000
23
-5.697056
33
1.200000
0
3DFACE
8
ball - ball_partition
62
10
62
10
10
-4.668694
20
-5.307134
30
1.125549
11
-4.423271
21
-5.307134
31
1.423271
12
-4.200000
22
-5.697056
32
1.200000
13
-4.406923
23
-5.697056
33
0.948982
0
3DFACE
8
ball - ball_partition
62
10
62
10
10
-4.852801
20
-5.307134
30
0.786467
11
-4.668694
21
-5.307134
31
1.125549
12
-4.406923
22
-5.697056
32
0.948982
13
-4.562149
23
-5.697056
33
0.663093
0
3DFACE
8
ball - ball_partition
62
10
62
10
10
-4.968825
20
-5.307134
30
0.418486
11
-4.852801
21
-5.307134
31
0.786467
12
-4.562149
22
-5.697056
32
0.663093
13
-4.659972
23
-5.697056
33
0.352838
0
3DFACE
8
ball - ball_partition
62
10
62
10
10
-5.012810
20
-5.307134
30
-0.000000
11
-4.968825
21
-5.307134
31
0.418486
12
-4.659972
22
-5.697056
32
0.352838
13
-4.697056
23
-5.697056
33
-0.000000
0
3DFACE
8
ball - ball_partition
62
10
62
10
10
-4.975829
20
-5.307134
30
-0.384062
11
-5.012810
21
-5.307134
31
-0.000000
12
-4.697056
22
-5.697056
32
-0.000000
13
-4.665877
23
-5.697056
33
-0.323814
0
3DFACE
8
ball - ball_partition
62
10
62
10
10
-4.866244
20
-5.307134
30
-0.754012
11
-4.975829
21
-5.307134
31
-0.384062
12
-4.665877
22
-5.697056
32
-0.323814
13
-4.573483
23
-5.697056
33
-0.635729
0
3DFACE
8
ball - ball_partition
62
10
62
10
10
-4.688084
20
-5.307134
30
-1.096254
11
-4.866244
21
-5.307134
31
-0.754012
12
-4.573483
22
-5.697056
32
-0.635729
13
-4.423271
23
-5.697056
33
-0.924283
0
3DFACE
8
ball - ball_partition
62
10
62
10
10
-4.423271
20
-5.307134
30
-1.423271
11
-4.688084
21
-5.307134
31
-1.096254
12
-4.423271
22
-5.697056
32
-0.924283
13
-4.200000
23
-5.697056
33
-1.200000
0
3DFACE
8
ball - ball_partition
62
10
62
10
10
-4.125549
20
-5.307134
30
-1.668695
11
-4.423271
21
-5.307134
31
-1.423271
12
-4.200000
22
-5.697056
32
-1.200000
13
-3.948982
23
-5.697056
33
-1.406924
0
3DFACE
8
ball - ball_partition
62
10
62
10
10
-3.786468
20
-5.307134
30
-1.852801
11
-4.125549
21
-5.307134
31
-1.668695
12
-3.948982
22
-5.697056
32
-1.406924
13
-3.663093
23
-5.697056
33
-1.562148
0
3DFACE
8
ball - ball_partition
62
10
62
10
10
-3.418487
20
-5.307134
30
-1.968825
11
-3.786468
21
-5.307134
31
-1.852801
12
-3.663093
22
-5.697056
32
-1.562148
13
-3.352838
23
-5.697056
33
-1.659971
0
3DFACE
8
ball - ball_partition
62
10
62
10
10
-3.000000
20
-5.307134
30
-2.012810
11
-3.418487
21
-5.307134
31
-1.968825
12
-3.352838
22
-5.697056
32
-1.659971
13
-3.000000
23
-5.697056
33
-1.697056
0
3DFACE
8
ball - ball_partition
62
10
62
10
10
-2.615938
20
-5.307134
30
-1.975829
11
-3.000000
21
-5.307134
31
-2.012810
12
-3.000000
22
-5.697056
32
-1.697056
13
-2.676187
23
-5.697056
33
-1.665877
0
3DFACE
8
ball - ball_partition
62
10
62
10
10
-2.245988
20
-5.307134
30
-1.866244
11
-2.615938
21
-5.307134
31
-1.975829
12
-2.676187
22
-5.697056
32
-1.665877
13
-2.364271
23
-5.697056
33
-1.573483
0
3DFACE
8
ball - ball_partition
62
10
62
10
10
-1.903745
20
-5.307134
30
-1.688084
11
-2.245988
21
-5.307134
31
-1.866244
12
-2.364271
22
-5.697056
32
-1.573483
13
-2.075717
23
-5.697056
33
-1.423271
0
3DFACE
8
ball - ball_partition
62
10
62
10
10
-1.576729
20
-5.307134
30
-1.423271
11
-1.903745
21
-5.307134
31
-1.688084
12
-2.075717
22
-5.697056
32
-1.423271
13
-1.800000
23
-5.697056
33
-1.200000
0
3DFACE
8
ball - ball_partition
62
10
62
10
10
-1.331305
20
-5.307134
30
-1.125548
11
-1.576729
21
-5.307134
31
-1.423271
12
-1.800000
22
-5.697056
32
-1.200000
13
-1.593076
23
-5.697056
33
-0.948982
0
3DFACE
8
ball - ball_partition
62
10
62
10
10
-1.147199
20
-5.307134
30
-0.786467
11
-1.331305
21
-5.307134
31
-1.125548
12
-1.593076
22
-5.697056
32
-0.948982
13
-1.437851
23
-5.697056
33
-0.663093
0
3DFACE
8
ball - ball_partition
62
10
62
10
10
-1.031175
20
-5.307134
30
-0.418487
11
-1.147199
21
-5.307134
31
-0.786467
12
-1.437851
22
-5.697056
32
-0.663093
13
-1.340028
23
-5.697056
33
-0.352838
0
3DFACE
8
ball - ball_partition
62
10
62
10
10
-0.987190
20
-5.307134
30
0.000000
11
-1.031175
21
-5.307134
31
-0.418487
12
-1.340028
22
-5.697056
32
-0.352838
13
-1.302944
23
-5.697056
33
0.000000
0
3DFACE
8
ball - ball_partition
62
10
62
10
10
-0.815643
20
-4.899056
30
0.424596
11
-0.774759
21
-4.899056
31
0.000000
12
-0.987190
22
-5.307134
32
0.000000
13
-1.024171
23
-5.307134
33
0.384062
0
3DFACE
8
ball - ball_partition
62
10
62
10
10
-0.936792
20
-4.899056
30
0.833590
11
-0.815643
21
-4.899056
31
0.424596
12
-1.024171
22
-5.307134
32
0.384062
13
-1.133756
23
-5.307134
33
0.754012
0
3DFACE
8
ball - ball_partition
62
10
62
10
10
-1.133756
20
-4.899056
30
1.211953
11
-0.936792
21
-4.899056
31
0.833590
12
-1.133756
22
-5.307134
32
0.754012
13
-1.311916
23
-5.307134
33
1.096255
0
3DFACE
8
ball - ball_partition
62
10
62
10
10
-1.426517
20
-4.899056
30
1.573483
11
-1.133756
21
-4.899056
31
1.211953
12
-1.311916
22
-5.307134
32
1.096255
13
-1.576729
23
-5.307134
33
1.423271
0
3DFACE
8
ball - ball_partition
62
10
62
10
10
-1.755661
20
-4.899056
30
1.844809
11
-1.426517
21
-4.899056
31
1.573483
12
-1.576729
22
-5.307134
32
1.423271
13
-1.874451
23
-5.307134
33
1.668695
0
3DFACE
8
ball - ball_partition
62
10
62
10
10
-2.130529
20
-4.899056
30
2.048346
11
-1.755661
21
-4.899056
31
1.844809
12
-1.874451
22
-5.307134
32
1.668695
13
-2.213533
23
-5.307134
33
1.852801
0
3DFACE
8
ball - ball_partition
62
10
62
10
10
-2.537346
20
-4.899056
30
2.176615
11
-2.130529
21
-4.899056
31
2.048346
12
-2.213533
22
-5.307134
32
1.852801
13
-2.581513
23
-5.307134
33
1.968825
0
3DFACE
8
ball - ball_partition
62
10
62
10
10
-3.000000
20
-4.899056
30
2.225241
11
-2.537346
21
-4.899056
31
2.176615
12
-2.581513
22
-5.307134
32
1.968825
13
-3.000000
23
-5.307134
33
2.012810
0
3DFACE
8
ball - ball_partition
62
10
62
10
10
-3.424596
20
-4.899056
30
2.184357
11
-3.000000
21
-4.899056
31
2.225241
12
-3.000000
22
-5.307134
32
2.012810
13
-3.384062
23
-5.307134
33
1.975828
0
3DFACE
8
ball - ball_partition
62
10
62
10
10
-3.833590
20
-4.899056
30
2.063208
11
-3.424596
21
-4.899056
31
2.184357
12
-3.384062
22
-5.307134
32
1.975828
13
-3.754012
23
-5.307134
33
1.866244
0
3DFACE
8
ball - ball_partition
62
10
62
10
10
-4.211953
20
-4.899056
30
1.866244
11
-3.833590
21
-4.899056
31
2.063208
12
-3.754012
22
-5.307134
32
1.866244
13
-4.096254
23
-5.307134
33
1.688084
0
3DFACE
8
ball - ball_partition
62
10
62
10
10
-4.573483
20
-4.899056
30
1.573483
11
-4.211953
21
-4.899056
31
1.866244
12
-4.096254
22
-5.307134
32
1.688084
13
-4.423271
23
-5.307134
33
1.423271
0
3DFACE
8
ball - ball_partition
62
10
62
10
10
-4.844809
20
-4.899056
30
1.244339
11
-4.573483
21
-4.899056
31
1.573483
12
-4.423271
22
-5.307134
32
1.423271
13
-4.668694
23
-5.307134
33
1.125549
0
3DFACE
8
ball - ball_partition
62
10
62
10
10
-5.048346
20
-4.899056
30
0.869471
11
-4.844809
21
-4.899056
31
1.244339
12
-4.668694
22
-5.307134
32
1.125549
13
-4.852801
23
-5.307134
33
0.786467
0
3DFACE
8
ball - ball_partition
62
10
62
10
10
-5.176615
20
-4.899056
30
0.462653
11
-5.048346
21
-4.899056
31
0.869471
12
-4.852801
22
-5.307134
32
0.786467
13
-4.968825
23
-5.307134
33
0.418486
0
3DFACE
8
ball - ball_partition
62
10
62
10
10
-5.225242
20
-4.899056
30
-0.000000
11
-5.176615
21
-4.899056
31
0.462653
12
-4.968825
22
-5.307134
32
0.418486
13
-5.012810
23
-5.307134
33
-0.000000
0
3DFACE
8
ball - ball_partition
62
10
62
10
10
-5.184358
20
-4.899056
30
-0.424596
11
-5.225242
21
-4.899056
31
-0.000000
12
-5.012810
22
-5.307134
32
-0.000000
13
-4.975829
23
-5.307134
33
-0.384062
0
3DFACE
8
ball - ball_partition
62
10
62
10
10
-5.063208
20
-4.899056
30
-0.833590
11
-5.184358
21
-4.899056
31
-0.424596
12
-4.975829
22
-5.307134
32
-0.384062
13
-4.866244
23
-5.307134
33
-0.754012
0
3DFACE
8
ball - ball_partition
62
10
62
10
10
-4.866244
20
-4.899056
30
-1.211953
11
-5.063208
21
-4.899056
31
-0.833590
12
-4.866244
22
-5.307134
32
-0.754012
13
-4.688084
23
-5.307134
33
-1.096254
0
3DFACE
8
ball - ball_partition
62
10
62
10
10
-4.573483
20
-4.899056
30
-1.573483
11
-4.866244
21
-4.899056
31
-1.211953
12
-4.688084
22
-5.307134
32
-1.096254
13
-4.423271
23
-5.307134
33
-1.423271
0
3DFACE
8
ball - ball_partition
62
10
62
10
10
-4.244339
20
-4.899056
30
-1.844809
11
-4.573483
21
-4.899056
31
-1.573483
12
-4.423271
22
-5.307134
32
-1.423271
13
-4.125549
23
-5.307134
33
-1.668695
0
3DFACE
8
ball - ball_partition
62
10
62
10
10
-3.869471
20
-4.899056
30
-2.048345
11
-4.244339
21
-4.899056
31
-1.844809
12
-4.125549
22
-5.307134
32
-1.668695
13
-3.786468
23
-5.307134
33
-1.852801
0
3DFACE
8
ball - ball_partition
62
10
62
10
10
-3.462654
20
-4.899056
30
-2.176615
11
-3.869471
21
-4.899056
31
-2.048345
12
-3.786468
22
-5.307134
32
-1.852801
13
-3.418487
23
-5.307134
33
-1.968825
0
3DFACE
8
ball - ball_partition
62
10
62
10
10
-3.000000
20
-4.899056
30
-2.225241
11
-3.462654
21
-4.899056
31
-2.176615
12
-3.418487
22
-5.307134
32
-1.968825
13
-3.000000
23
-5.307134
33
-2.012810
0
3DFACE
8
ball - ball_partition
62
10
62
10
10
-2.575404
20
-4.899056
30
-2.184357
11
-3.000000
21
-4.899056
31
-2.225241
12
-3.000000
22
-5.307134
32
-2.012810
13
-2.615938
23
-5.307134
33
-1.975829
0
3DFACE
8
ball - ball_partition
62
10
62
10
10
-2.166409
20
-4.899056
30
-2.063208
11
-2.575404
21
-4.899056
31
-2.184357
12
-2.615938
22
-5.307134
32
-1.975829
13
-2.245988
23
-5.307134
33
-1.866244
0
3DFACE
8
ball - ball_partition
62
10
62
10
10
-1.788046
20
-4.899056
30
-1.866244
11
-2.166409
21
-4.899056
31
-2.063208
12
-2.245988
22
-5.307134
32
-1.866244
13
-1.903745
23
-5.307134
33
-1.688084
0
3DFACE
8
ball - ball_partition
62
10
62
10
10
-1.426517
20
-4.899056
30
-1.573483
11
-1.788046
21
-4.899056
31
-1.866244
12
-1.903745
22
-5.307134
32
-1.688084
13
-1.576729
23
-5.307134
33
-1.423271
0
3DFACE
8
ball - ball_partition
62
10
62
10
10
-1.155191
20
-4.899056
30
-1.244339
11
-1.426517
21
-4.899056
31
-1.573483
12
-1.576729
22
-5.307134
32
-1.423271
13
-1.331305
23
-5.307134
33
-1.125548
0
3DFACE
8
ball - ball_partition
62
10
62
10
10
-0.951654
20
-4.899056
30
-0.869471
11
-1.155191
21
-4.899056
31
-1.244339
12
-1.331305
22
-5.307134
32
-1.125548
13
-1.147199
23
-5.307134
33
-0.786467
0
3DFACE
8
ball - ball_partition
62
10
62
10
10
-0.823385
20
-4.899056
30
-0.462654
11
-0.951654
21
-4.899056
31
-0.869471
12
-1.147199
22
-5.307134
32
-0.786467
13
-1.031175
23
-5.307134
33
-0.418487
0
3DFACE
8
ball - ball_partition
62
10
62
10
10
-0.774759
20
-4.899056
30
0.000000
11
-0.823385
21
-4.899056
31
-0.462654
12
-1.031175
22
-5.307134
32
-0.418487
13
-0.987190
23
-5.307134
33
0.000000
0
3DFACE
8
ball - ball_partition
62
10
62
10
10
-0.687379
20
-4.457942
30
0.449528
11
-0.644094
21
-4.457942
31
0.000000
12
-0.774759
22
-4.899056
32
0.000000
13
-0.815643
23
-4.899056
33
0.424596
0
3DFACE
8
ball - ball_partition
62
10
62
10
10
-0.815643
20
-4.457942
30
0.882538
11
-0.687379
21
-4.457942
31
0.449528
12
-0.815643
22
-4.899056
32
0.424596
13
-0.936792
23
-4.899056
33
0.833590
0
3DFACE
8
ball - ball_partition
62
10
62
10
10
-1.024171
20
-4.457942
30
1.283118
11
-0.815643
21
-4.457942
31
0.882538
12
-0.936792
22
-4.899056
32
0.833590
13
-1.133756
23
-4.899056
33
1.211953
0
3DFACE
8
ball - ball_partition
62
10
62
10
10
-1.334123
20
-4.457942
30
1.665877
11
-1.024171
21
-4.457942
31
1.283118
12
-1.133756
22
-4.899056
32
1.211953
13
-1.426517
23
-4.899056
33
1.573483
0
3DFACE
8
ball - ball_partition
62
10
62
10
10
-1.682594
20
-4.457942
30
1.953134
11
-1.334123
21
-4.457942
31
1.665877
12
-1.426517
22
-4.899056
32
1.573483
13
-1.755661
23
-4.899056
33
1.844809
0
3DFACE
8
ball - ball_partition
62
10
62
10
10
-2.079474
20
-4.457942
30
2.168622
11
-1.682594
21
-4.457942
31
1.953134
12
-1.755661
22
-4.899056
32
1.844809
13
-2.130529
23
-4.899056
33
2.048346
0
3DFACE
8
ball - ball_partition
62
10
62
10
10
-2.510180
20
-4.457942
30
2.304423
11
-2.079474
21
-4.457942
31
2.168622
12
-2.130529
22
-4.899056
32
2.048346
13
-2.537346
23
-4.899056
33
2.176615
0
3DFACE
8
ball - ball_partition
62
10
62
10
10
-3.000000
20
-4.457942
30
2.355906
11
-2.510180
21
-4.457942
31
2.304423
12
-2.537346
22
-4.899056
32
2.176615
13
-3.000000
23
-4.899056
33
2.225241
0
3DFACE
8
ball - ball_partition
62
10
62
10
10
-3.449528
20
-4.457942
30
2.312621
11
-3.000000
21
-4.457942
31
2.355906
12
-3.000000
22
-4.899056
32
2.225241
13
-3.424596
23
-4.899056
33
2.184357
0
3DFACE
8
ball - ball_partition
62
10
62
10
10
-3.882538
20
-4.457942
30
2.184357
11
-3.449528
21
-4.457942
31
2.312621
12
-3.424596
22
-4.899056
32
2.184357
13
-3.833590
23
-4.899056
33
2.063208
0
3DFACE
8
ball - ball_partition
62
10
62
10
10
-4.283118
20
-4.457942
30
1.975829
11
-3.882538
21
-4.457942
31
2.184357
12
-3.833590
22
-4.899056
32
2.063208
13
-4.211953
23
-4.899056
33
1.866244
0
3DFACE
8
ball - ball_partition
62
10
62
10
10
-4.665877
20
-4.457942
30
1.665877
11
-4.283118
21
-4.457942
31
1.975829
12
-4.211953
22
-4.899056
32
1.866244
13
-4.573483
23
-4.899056
33
1.573483
0
3DFACE
8
ball - ball_partition
62
10
62
10
10
-4.953134
20
-4.457942
30
1.317405
11
-4.665877
21
-4.457942
31
1.665877
12
-4.573483
22
-4.899056
32
1.573483
13
-4.844809
23
-4.899056
33
1.244339
0
3DFACE
8
ball - ball_partition
62
10
62
10
10
-5.168622
20
-4.457942
30
0.920526
11
-4.953134
21
-4.457942
31
1.317405
12
-4.844809
22
-4.899056
32
1.244339
13
-5.048346
23
-4.899056
33
0.869471
0
3DFACE
8
ball - ball_partition
62
10
62
10
10
-5.304423
20
-4.457942
30
0.489820
11
-5.168622
21
-4.457942
31
0.920526
12
-5.048346
22
-4.899056
32
0.869471
13
-5.176615
23
-4.899056
33
0.462653
0
3DFACE
8
ball - ball_partition
62
10
62
10
10
-5.355906
20
-4.457942
30
-0.000000
11
-5.304423
21
-4.457942
31
0.489820
12
-5.176615
22
-4.899056
32
0.462653
13
-5.225242
23
-4.899056
33
-0.000000
0
3DFACE
8
ball - ball_partition
62
10
62
10
10
-5.312621
20
-4.457942
30
-0.449528
11
-5.355906
21
-4.457942
31
-0.000000
12
-5.225242
22
-4.899056
32
-0.000000
13
-5.184358
23
-4.899056
33
-0.424596
0
3DFACE
8
ball - ball_partition
62
10
62
10
10
-5.184358
20
-4.457942
30
-0.882538
11
-5.312621
21
-4.457942
31
-0.449528
12
-5.184358
22
-4.899056
32
-0.424596
13
-5.063208
23
-4.899056
33
-0.833590
0
3DFACE
8
ball - ball_partition
62
10
62
10
10
-4.975829
20
-4.457942
30
-1.283118
11
-5.184358
21
-4.457942
31
-0.882538
12
-5.063208
22
-4.899056
32
-0.833590
13
-4.866244
23
-4.899056
33
-1.211953
0
3DFACE
8
ball - ball_partition
62
10
62
10
10
-4.665877
20
-4.457942
30
-1.665877
11
-4.975829
21
-4.457942
31
-1.283118
12
-4.866244
22
-4.899056
32
-1.211953
13
-4.573483
23
-4.899056
33
-1.573483
0
3DFACE
8
ball - ball_partition
62
10
62
10
10
-4.317406
20
-4.457942
30
-1.953134
11
-4.665877
21
-4.457942
31
-1.665877
12
-4.573483
22
-4.899056
32
-1.573483
13
-4.244339
23
-4.899056
33
-1.844809
0
3DFACE
8
ball - ball_partition
62
10
62
10
10
-3.920526
20
-4.457942
30
-2.168622
11
-4.317406
21
-4.457942
31
-1.953134
12
-4.244339
22
-4.899056
32
-1.844809
13
-3.869471
23
-4.899056
33
-2.048345
0
3DFACE
8
ball - ball_partition
62
10
62
10
10
-3.489821
20
-4.457942
30
-2.304423
11
-3.920526
21
-4.457942
31
-2.168622
12
-3.869471
22
-4.899056
32
-2.048345
13
-3.462654
23
-4.899056
33
-2.176615
0
3DFACE
8
ball - ball_partition
62
10
62
10
10
-3.000000
20
-4.457942
30
-2.355906
11
-3.489821
21
-4.457942
31
-2.304423
12
-3.462654
22
-4.899056
32
-2.176615
13
-3.000000
23
-4.899056
33
-2.225241
0
3DFACE
8
ball - ball_partition
62
10
62
10
10
-2.550472
20
-4.457942
30
-2.312621
11
-3.000000
21
-4.457942
31
-2.355906
12
-3.000000
22
-4.899056
32
-2.225241
13
-2.575404
23
-4.899056
33
-2.184357
0
3DFACE
8
ball - ball_partition
62
10
62
10
10
-2.117462
20
-4.457942
30
-2.184357
11
-2.550472
21
-4.457942
31
-2.312621
12
-2.575404
22
-4.899056
32
-2.184357
13
-2.166409
23
-4.899056
33
-2.063208
0
3DFACE
8
ball - ball_partition
62
10
62
10
10
-1.716882
20
-4.457942
30
-1.975828
11
-2.117462
21
-4.457942
31
-2.184357
12
-2.166409
22
-4.899056
32
-2.063208
13
-1.788046
23
-4.899056
33
-1.866244
0
3DFACE
8
ball - ball_partition
62
10
62
10
10
-1.334123
20
-4.457942
30
-1.665877
11
-1.716882
21
-4.457942
31
-1.975828
12
-1.788046
22
-4.899056
32
-1.866244
13
-1.426517
23
-4.899056
33
-1.573483
0
3DFACE
8
ball - ball_partition
62
10
62
10
10
-1.046866
20
-4.457942
30
-1.317405
11
-1.334123
21
-4.457942
31
-1.665877
12
-1.426517
22
-4.899056
32
-1.573483
13
-1.155191
23
-4.899056
33
-1.244339
0
3DFACE
8
ball - ball_partition
62
10
62
10
10
-0.831378
20
-4.457942
30
-0.920525
11
-1.046866
21
-4.457942
31
-1.317405
12
-1.155191
22
-4.899056
32
-1.244339
13
-0.951654
23
-4.899056
33
-0.869471
0
3DFACE
8
ball - ball_partition
62
10
62
10
10
-0.695577
20
-4.457942
30
-0.489820
11
-0.831378
21
-4.457942
31
-0.920525
12
-0.951654
22
-4.899056
32
-0.869471
13
-0.823385
23
-4.899056
33
-0.462654
0
3DFACE
8
ball - ball_partition
62
10
62
10
10
-0.644094
20
-4.457942
30
0.000000
11
-0.695577
21
-4.457942
31
-0.489820
12
-0.823385
22
-4.899056
32
-0.462654
13
-0.774759
23
-4.899056
33
0.000000
0
3DFACE
8
ball - ball_partition
62
10
62
10
10
-0.644094
20
-4.000000
30
0.457942
11
-0.600000
21
-4.000000
31
0.000000
12
-0.644094
22
-4.457942
32
0.000000
13
-0.687379
23
-4.457942
33
0.449528
0
3DFACE
8
ball - ball_partition
62
10
62
10
10
-0.774759
20
-4.000000
30
0.899056
11
-0.644094
21
-4.000000
31
0.457942
12
-0.687379
22
-4.457942
32
0.449528
13
-0.815643
23
-4.457942
33
0.882538
0
3DFACE
8
ball - ball_partition
62
10
62
10
10
-0.987190
20
-4.000000
30
1.307134
11
-0.774759
21
-4.000000
31
0.899056
12
-0.815643
22
-4.457942
32
0.882538
13
-1.024171
23
-4.457942
33
1.283118
0
3DFACE
8
ball - ball_partition
62
10
62
10
10
-1.302944
20
-4.000000
30
1.697056
11
-0.987190
21
-4.000000
31
1.307134
12
-1.024171
22
-4.457942
32
1.283118
13
-1.334123
23
-4.457942
33
1.665877
0
3DFACE
8
ball - ball_partition
62
10
62
10
10
-1.657937
20
-4.000000
30
1.989690
11
-1.302944
21
-4.000000
31
1.697056
12
-1.334123
22
-4.457942
32
1.665877
13
-1.682594
23
-4.457942
33
1.953134
0
3DFACE
8
ball - ball_partition
62
10
62
10
10
-2.062245
20
-4.000000
30
2.209212
11
-1.657937
21
-4.000000
31
1.989690
12
-1.682594
22
-4.457942
32
1.953134
13
-2.079474
23
-4.457942
33
2.168622
0
3DFACE
8
ball - ball_partition
62
10
62
10
10
-2.501012
20
-4.000000
30
2.347554
11
-2.062245
21
-4.000000
31
2.209212
12
-2.079474
22
-4.457942
32
2.168622
13
-2.510180
23
-4.457942
33
2.304423
0
3DFACE
8
ball - ball_partition
62
10
62
10
10
-3.000000
20
-4.000000
30
2.400000
11
-2.501012
21
-4.000000
31
2.347554
12
-2.510180
22
-4.457942
32
2.304423
13
-3.000000
23
-4.457942
33
2.355906
0
3DFACE
8
ball - ball_partition
62
10
62
10
10
-3.457942
20
-4.000000
30
2.355905
11
-3.000000
21
-4.000000
31
2.400000
12
-3.000000
22
-4.457942
32
2.355906
13
-3.449528
23
-4.457942
33
2.312621
0
3DFACE
8
ball - ball_partition
62
10
62
10
10
-3.899056
20
-4.000000
30
2.225241
11
-3.457942
21
-4.000000
31
2.355905
12
-3.449528
22
-4.457942
32
2.312621
13
-3.882538
23
-4.457942
33
2.184357
0
3DFACE
8
ball - ball_partition
62
10
62
10
10
-4.307134
20
-4.000000
30
2.012810
11
-3.899056
21
-4.000000
31
2.225241
12
-3.882538
22
-4.457942
32
2.184357
13
-4.283118
23
-4.457942
33
1.975829
0
3DFACE
8
ball - ball_partition
62
10
62
10
10
-4.697056
20
-4.000000
30
1.697056
11
-4.307134
21
-4.000000
31
2.012810
12
-4.283118
22
-4.457942
32
1.975829
13
-4.665877
23
-4.457942
33
1.665877
0
3DFACE
8
ball - ball_partition
62
10
62
10
10
-4.989690
20
-4.000000
30
1.342063
11
-4.697056
21
-4.000000
31
1.697056
12
-4.665877
22
-4.457942
32
1.665877
13
-4.953134
23
-4.457942
33
1.317405
0
3DFACE
8
ball - ball_partition
62
10
62
10
10
-5.209211
20
-4.000000
30
0.937755
11
-4.989690
21
-4.000000
31
1.342063
12
-4.953134
22
-4.457942
32
1.317405
13
-5.168622
23
-4.457942
33
0.920526
0
3DFACE
8
ball - ball_partition
62
10
62
10
10
-5.347554
20
-4.000000
30
0.498988
11
-5.209211
21
-4.000000
31
0.937755
12
-5.168622
22
-4.457942
32
0.920526
13
-5.304423
23
-4.457942
33
0.489820
0
3DFACE
8
ball - ball_partition
62
10
62
10
10
-5.400000
20
-4.000000
30
-0.000000
11
-5.347554
21
-4.000000
31
0.498988
12
-5.304423
22
-4.457942
32
0.489820
13
-5.355906
23
-4.457942
33
-0.000000
0
3DFACE
8
ball - ball_partition
62
10
62
10
10
-5.355906
20
-4.000000
30
-0.457942
11
-5.400000
21
-4.000000
31
-0.000000
12
-5.355906
22
-4.457942
32
-0.000000
13
-5.312621
23
-4.457942
33
-0.449528
0
3DFACE
8
ball - ball_partition
62
10
62
10
10
-5.225241
20
-4.000000
30
-0.899056
11
-5.355906
21
-4.000000
31
-0.457942
12
-5.312621
22
-4.457942
32
-0.449528
13
-5.184358
23
-4.457942
33
-0.882538
0
3DFACE
8
ball - ball_partition
62
10
62
10
10
-5.012810
20
-4.000000
30
-1.307134
11
-5.225241
21
-4.000000
31
-0.899056
12
-5.184358
22
-4.457942
32
-0.882538
13
-4.975829
23
-4.457942
33
-1.283118
0
3DFACE
8
ball - ball_partition
62
10
62
10
10
-4.697056
20
-4.000000
30
-1.697056
11
-5.012810
21
-4.000000
31
-1.307134
12
-4.975829
22
-4.457942
32
-1.283118
13
-4.665877
23
-4.457942
33
-1.665877
0
3DFACE
8
ball - ball_partition
62
10
62
10
10
-4.342063
20
-4.000000
30
-1.989690
11
-4.697056
21
-4.000000
31
-1.697056
12
-4.665877
22
-4.457942
32
-1.665877
13
-4.317406
23
-4.457942
33
-1.953134
0
3DFACE
8
ball - ball_partition
62
10
62
10
10
-3.937755
20
-4.000000
30
-2.209212
11
-4.342063
21
-4.000000
31
-1.989690
12
-4.317406
22
-4.457942
32
-1.953134
13
-3.920526
23
-4.457942
33
-2.168622
0
3DFACE
8
ball - ball_partition
62
10
62
10
10
-3.498989
20
-4.000000
30
-2.347554
11
-3.937755
21
-4.000000
31
-2.209212
12
-3.920526
22
-4.457942
32
-2.168622
13
-3.489821
23
-4.457942
33
-2.304423
0
3DFACE
8
ball - ball_partition
62
10
62
10
10
-3.000000
20
-4.000000
30
-2.400000
11
-3.498989
21
-4.000000
31
-2.347554
12
-3.489821
22
-4.457942
32
-2.304423
13
-3.000000
23
-4.457942
33
-2.355906
0
3DFACE
8
ball - ball_partition
62
10
62
10
10
-2.542059
20
-4.000000
30
-2.355906
11
-3.000000
21
-4.000000
31
-2.400000
12
-3.000000
22
-4.457942
32
-2.355906
13
-2.550472
23
-4.457942
33
-2.312621
0
3DFACE
8
ball - ball_partition
62
10
62
10
10
-2.100944
20
-4.000000
30
-2.225241
11
-2.542059
21
-4.000000
31
-2.355906
12
-2.550472
22
-4.457942
32
-2.312621
13
-2.117462
23
-4.457942
33
-2.184357
0
3DFACE
8
ball - ball_partition
62
10
62
10
10
-1.692866
20
-4.000000
30
-2.012809
11
-2.100944
21
-4.000000
31
-2.225241
12
-2.117462
22
-4.457942
32
-2.184357
13
-1.716882
23
-4.457942
33
-1.975828
0
3DFACE
8
ball - ball_partition
62
10
62
10
10
-1.302944
20
-4.000000
30
-1.697057
11
-1.692866
21
-4.000000
31
-2.012809
12
-1.716882
22
-4.457942
32
-1.975828
13
-1.334123
23
-4.457942
33
-1.665877
0
3DFACE
8
ball - ball_partition
62
10
62
10
10
-1.010310
20
-4.000000
30
-1.342063
11
-1.302944
21
-4.000000
31
-1.697057
12
-1.334123
22
-4.457942
32
-1.665877
13
-1.046866
23
-4.457942
33
-1.317405
0
3DFACE
8
ball - ball_partition
62
10
62
10
10
-0.790788
20
-4.000000
30
-0.937755
11
-1.010310
21
-4.000000
31
-1.342063
12
-1.046866
22
-4.457942
32
-1.317405
13
-0.831378
23
-4.457942
33
-0.920525
0
3DFACE
8
ball - ball_partition
62
10
62
10
10
-0.652446
20
-4.000000
30
-0.498988
11
-0.790788
21
-4.000000
31
-0.937755
12
-0.831378
22
-4.457942
32
-0.920525
13
-0.695577
23
-4.457942
33
-0.489820
0
3DFACE
8
ball - ball_partition
62
10
62
10
10
-0.600000
20
-4.000000
30
0.000000
11
-0.652446
21
-4.000000
31
-0.498988
12
-0.695577
22
-4.457942
32
-0.489820
13
-0.644094
23
-4.457942
33
0.000000
0
3DFACE
8
ball - ball_partition
62
10
62
10
10
-0.687379
20
-3.542058
30
0.449528
11
-0.644094
21
-3.542058
31
0.000000
12
-0.600000
22
-4.000000
32
0.000000
13
-0.644094
23
-4.000000
33
0.457942
0
3DFACE
8
ball - ball_partition
62
10
62
10
10
-0.815643
20
-3.542058
30
0.882538
11
-0.687379
21
-3.542058
31
0.449528
12
-0.644094
22
-4.000000
32
0.457942
13
-0.774759
23
-4.000000
33
0.899056
0
3DFACE
8
ball - ball_partition
62
10
62
10
10
-1.024171
20
-3.542058
30
1.283118
11
-0.815643
21
-3.542058
31
0.882538
12
-0.774759
22
-4.000000
32
0.899056
13
-0.987190
23
-4.000000
33
1.307134
0
3DFACE
8
ball - ball_partition
62
10
62
10
10
-1.334123
20
-3.542058
30
1.665877
11
-1.024171
21
-3.542058
31
1.283118
12
-0.987190
22
-4.000000
32
1.307134
13
-1.302944
23
-4.000000
33
1.697056
0
3DFACE
8
ball - ball_partition
62
10
62
10
10
-1.682594
20
-3.542058
30
1.953134
11
-1.334123
21
-3.542058
31
1.665877
12
-1.302944
22
-4.000000
32
1.697056
13
-1.657937
23
-4.000000
33
1.989690
0
3DFACE
8
ball - ball_partition
62
10
62
10
10
-2.079474
20
-3.542058
30
2.168622
11
-1.682594
21
-3.542058
31
1.953134
12
-1.657937
22
-4.000000
32
1.989690
13
-2.062245
23
-4.000000
33
2.209212
0
3DFACE
8
ball - ball_partition
62
10
62
10
10
-2.510180
20
-3.542058
30
2.304423
11
-2.079474
21
-3.542058
31
2.168622
12
-2.062245
22
-4.000000
32
2.209212
13
-2.501012
23
-4.000000
33
2.347554
0
3DFACE
8
ball - ball_partition
62
10
62
10
10
-3.000000
20
-3.542058
30
2.355906
11
-2.510180
21
-3.542058
31
2.304423
12
-2.501012
22
-4.000000
32
2.347554
13
-3.000000
23
-4.000000
33
2.400000
0
3DFACE
8
ball - ball_partition
62
10
62
10
10
-3.449528
20
-3.542058
30
2.312621
11
-3.000000
21
-3.542058
31
2.355906
12
-3.000000
22
-4.000000
32
2.400000
13
-3.457942
23
-4.000000
33
2.355905
0
3DFACE
8
ball - ball_partition
62
10
62
10
10
-3.882538
20
-3.542058
30
2.184357
11
-3.449528
21
-3.542058
31
2.312621
12
-3.457942
22
-4.000000
32
2.355905
13
-3.899056
23
-4.000000
33
2.225241
0
3DFACE
8
ball - ball_partition
62
10
62
10
10
-4.283118
20
-3.542058
30
1.975829
11
-3.882538
21
-3.542058
31
2.184357
12
-3.899056
22
-4.000000
32
2.225241
13
-4.307134
23
-4.000000
33
2.012810
0
3DFACE
8
ball - ball_partition
62
10
62
10
10
-4.665877
20
-3.542058
30
1.665877
11
-4.283118
21
-3.542058
31
1.975829
12
-4.307134
22
-4.000000
32
2.012810
13
-4.697056
23
-4.000000
33
1.697056
0
3DFACE
8
ball - ball_partition
62
10
62
10
10
-4.953134
20
-3.542058
30
1.317405
11
-4.665877
21
-3.542058
31
1.665877
12
-4.697056
22
-4.000000
32
1.697056
13
-4.989690
23
-4.000000
33
1.342063
0
3DFACE
8
ball - ball_partition
62
10
62
10
10
-5.168622
20
-3.542058
30
0.920526
11
-4.953134
21
-3.542058
31
1.317405
12
-4.989690
22
-4.000000
32
1.342063
13
-5.209211
23
-4.000000
33
0.937755
0
3DFACE
8
ball - ball_partition
62
10
62
10
10
-5.304423
20
-3.542058
30
0.489820
11
-5.168622
21
-3.542058
31
0.920526
12
-5.209211
22
-4.000000
32
0.937755
13
-5.347554
23
-4.000000
33
0.498988
0
3DFACE
8
ball - ball_partition
62
10
62
10
10
-5.355906
20
-3.542058
30
-0.000000
11
-5.304423
21
-3.542058
31
0.489820
12
-5.347554
22
-4.000000
32
0.498988
13
-5.400000
23
-4.000000
33
-0.000000
0
3DFACE
8
ball - ball_partition
62
10
62
10
10
-5.312621
20
-3.542058
30
-0.449528
11
-5.355906
21
-3.542058
31
-0.000000
12
-5.400000
22
-4.000000
32
-0.000000
13
-5.355906
23
-4.000000
33
-0.457942
0
3DFACE
8
ball - ball_partition
62
10
62
10
10
-5.184358
20
-3.542058
30
-0.882538
11
-5.312621
21
-3.542058
31
-0.449528
12
-5.355906
22
-4.000000
32
-0.457942
13
-5.225241
23
-4.000000
33
-0.899056
0
3DFACE
8
ball - ball_partition
62
10
62
10
10
-4.975829
20
-3.542058
30
-1.283118
11
-5.184358
21
-3.542058
31
-0.882538
12
-5.225241
22
-4.000000
32
-0.899056
13
-5.012810
23
-4.000000
33
-1.307134
0
3DFACE
8
ball - ball_partition
62
10
62
10
10
-4.665877
20
-3.542058
30
-1.665877
11
-4.975829
21
-3.542058
31
-1.283118
12
-5.012810
22
-4.000000
32
-1.307134
13
-4.697056
23
-4.000000
33
-1.697056
0
3DFACE
8
ball - ball_partition
62
10
62
10
10
-4.317406
20
-3.542058
30
-1.953134
11
-4.665877
21
-3.542058
31
-1.665877
12
-4.697056
22
-4.000000
32
-1.697056
13
-4.342063
23
-4.000000
33
-1.989690
0
3DFACE
8
ball - ball_partition
62
10
62
10
10
-3.920526
20
-3.542058
30
-2.168622
11
-4.317406
21
-3.542058
31
-1.953134
12
-4.342063
22
-4.000000
32
-1.989690
13
-3.937755
23
-4.000000
33
-2.209212
0
3DFACE
8
ball - ball_partition
62
10
62
10
10
-3.489821
20
-3.542058
30
-2.304423
11
-3.920526
21
-3.542058
31
-2.168622
12
-3.937755
22
-4.000000
32
-2.209212
13
-3.498989
23
-4.000000
33
-2.347554
0
3DFACE
8
ball - ball_partition
62
10
62
10
10
-3.000000
20
-3.542058
30
-2.355906
11
-3.489821
21
-3.542058
31
-2.304423
12
-3.498989
22
-4.000000
32
-2.347554
13
-3.000000
23
-4.000000
33
-2.400000
0
3DFACE
8
ball - ball_partition
62
10
62
10
10
-2.550472
20
-3.542058
30
-2.312621
11
-3.000000
21
-3.542058
31
-2.355906
12
-3.000000
22
-4.000000
32
-2.400000
13
-2.542059
23
-4.000000
33
-2.355906
0
3DFACE
8
ball - ball_partition
62
10
62
10
10
-2.117462
20
-3.542058
30
-2.184357
11
-2.550472
21
-3.542058
31
-2.312621
12
-2.542059
22
-4.000000
32
-2.355906
13
-2.100944
23
-4.000000
33
-2.225241
0
3DFACE
8
ball - ball_partition
62
10
62
10
10
-1.716882
20
-3.542058
30
-1.975828
11
-2.117462
21
-3.542058
31
-2.184357
12
-2.100944
22
-4.000000
32
-2.225241
13
-1.692866
23
-4.000000
33
-2.012809
0
3DFACE
8
ball - ball_partition
62
10
62
10
10
-1.334123
20
-3.542058
30
-1.665877
11
-1.716882
21
-3.542058
31
-1.975828
12
-1.692866
22
-4.000000
32
-2.012809
13
-1.302944
23
-4.000000
33
-1.697057
0
3DFACE
8
ball - ball_partition
62
10
62
10
10
-1.046866
20
-3.542058
30
-1.317405
11
-1.334123
21
-3.542058
31
-1.665877
12
-1.302944
22
-4.000000
32
-1.697057
13
-1.010310
23
-4.000000
33
-1.342063
0
3DFACE
8
ball - ball_partition
62
10
62
10
10
-0.831378
20
-3.542058
30
-0.920525
11
-1.046866
21
-3.542058
31
-1.317405
12
-1.010310
22
-4.000000
32
-1.342063
13
-0.790788
23
-4.000000
33
-0.937755
0
3DFACE
8
ball - ball_partition
62
10
62
10
10
-0.695577
20
-3.542058
30
-0.489820
11
-0.831378
21
-3.542058
31
-0.920525
12
-0.790788
22
-4.000000
32
-0.937755
13
-0.652446
23
-4.000000
33
-0.498988
0
3DFACE
8
ball - ball_partition
62
10
62
10
10
-0.644094
20
-3.542058
30
0.000000
11
-0.695577
21
-3.542058
31
-0.489820
12
-0.652446
22
-4.000000
32
-0.498988
13
-0.600000
23
-4.000000
33
0.000000
0
3DFACE
8
ball - ball_partition
62
10
62
10
10
-0.815643
20
-3.100944
30
0.424596
11
-0.774759
21
-3.100944
31
0.000000
12
-0.644094
22
-3.542058
32
0.000000
13
-0.687379
23
-3.542058
33
0.449528
0
3DFACE
8
ball - ball_partition
62
10
62
10
10
-0.936792
20
-3.100944
30
0.833590
11
-0.815643
21
-3.100944
31
0.424596
12
-0.687379
22
-3.542058
32
0.449528
13
-0.815643
23
-3.542058
33
0.882538
0
3DFACE
8
ball - ball_partition
62
10
62
10
10
-1.133756
20
-3.100944
30
1.211953
11
-0.936792
21
-3.100944
31
0.833590
12
-0.815643
22
-3.542058
32
0.882538
13
-1.024171
23
-3.542058
33
1.283118
0
3DFACE
8
ball - ball_partition
62
10
62
10
10
-1.426517
20
-3.100944
30
1.573483
11
-1.133756
21
-3.100944
31
1.211953
12
-1.024171
22
-3.542058
32
1.283118
13
-1.334123
23
-3.542058
33
1.665877
0
3DFACE
8
ball - ball_partition
62
10
62
10
10
-1.755661
20
-3.100944
30
1.844809
11
-1.426517
21
-3.100944
31
1.573483
12
-1.334123
22
-3.542058
32
1.665877
13
-1.682594
23
-3.542058
33
1.953134
0
3DFACE
8
ball - ball_partition
62
10
62
10
10
-2.130529
20
-3.100944
30
2.048346
11
-1.755661
21
-3.100944
31
1.844809
12
-1.682594
22
-3.542058
32
1.953134
13
-2.079474
23
-3.542058
33
2.168622
0
3DFACE
8
ball - ball_partition
62
10
62
10
10
-2.537346
20
-3.100944
30
2.176615
11
-2.130529
21
-3.100944
31
2.048346
12
-2.079474
22
-3.542058
32
2.168622
13
-2.510180
23
-3.542058
33
2.304423
0
3DFACE
8
ball - ball_partition
62
10
62
10
10
-3.000000
20
-3.100944
30
2.225241
11
-2.537346
21
-3.100944
31
2.176615
12
-2.510180
22
-3.542058
32
2.304423
13
-3.000000
23
-3.542058
33
2.355906
0
3DFACE
8
ball - ball_partition
62
10
62
10
10
-3.424596
20
-3.100944
30
2.184357
11
-3.000000
21
-3.100944
31
2.225241
12
-3.000000
22
-3.542058
32
2.355906
13
-3.449528
23
-3.542058
33
2.312621
0
3DFACE
8
ball - ball_partition
62
10
62
10
10
-3.833590
20
-3.100944
30
2.063208
11
-3.424596
21
-3.100944
31
2.184357
12
-3.449528
22
-3.542058
32
2.312621
13
-3.882538
23
-3.542058
33
2.184357
0
3DFACE
8
ball - ball_partition
62
10
62
10
10
-4.211953
20
-3.100944
30
1.866244
11
-3.833590
21
-3.100944
31
2.063208
12
-3.882538
22
-3.542058
32
2.184357
13
-4.283118
23
-3.542058
33
1.975829
0
3DFACE
8
ball - ball_partition
62
10
62
10
10
-4.573483
20
-3.100944
30
1.573483
11
-4.211953
21
-3.100944
31
1.866244
12
-4.283118
22
-3.542058
32
1.975829
13
-4.665877
23
-3.542058
33
1.665877
0
3DFACE
8
ball - ball_partition
62
10
62
10
10
-4.844809
20
-3.100944
30
1.244339
11
-4.573483
21
-3.100944
31
1.573483
12
-4.665877
22
-3.542058
32
1.665877
13
-4.953134
23
-3.542058
33
1.317405
0
3DFACE
8
ball - ball_partition
62
10
62
10
10
-5.048346
20
-3.100944
30
0.869471
11
-4.844809
21
-3.100944
31
1.244339
12
-4.953134
22
-3.542058
32
1.317405
13
-5.168622
23
-3.542058
33
0.920526
0
3DFACE
8
ball - ball_partition
62
10
62
10
10
-5.176615
20
-3.100944
30
0.462653
11
-5.048346
21
-3.100944
31
0.869471
12
-5.168622
22
-3.542058
32
0.920526
13
-5.304423
23
-3.542058
33
0.489820
0
3DFACE
8
ball - ball_partition
62
10
62
10
10
-5.225242
20
-3.100944
30
-0.000000
11
-5.176615
21
-3.100944
31
0.462653
12
-5.304423
22
-3.542058
32
0.489820
13
-5.355906
23
-3.542058
33
-0.000000
0
3DFACE
8
ball - ball_partition
62
10
62
10
10
-5.184358
20
-3.100944
30
-0.424596
11
-5.225242
21
-3.100944
31
-0.000000
12
-5.355906
22
-3.542058
32
-0.000000
13
-5.312621
23
-3.542058
33
-0.449528
0
3DFACE
8
ball - ball_partition
62
10
62
10
10
-5.063208
20
-3.100944
30
-0.833590
11
-5.184358
21
-3.100944
31
-0.424596
12
-5.312621
22
-3.542058
32
-0.449528
13
-5.184358
23
-3.542058
33
-0.882538
0
3DFACE
8
ball - ball_partition
62
10
62
10
10
-4.866244
20
-3.100944
30
-1.211953
11
-5.063208
21
-3.100944
31
-0.833590
12
-5.184358
22
-3.542058
32
-0.882538
13
-4.975829
23
-3.542058
33
-1.283118
0
3DFACE
8
ball - ball_partition
62
10
62
10
10
-4.573483
20
-3.100944
30
-1.573483
11
-4.866244
21
-3.100944
31
-1.211953
12
-4.975829
22
-3.542058
32
-1.283118
13
-4.665877
23
-3.542058
33
-1.665877
0
3DFACE
8
ball - ball_partition
62
10
62
10
10
-4.244339
20
-3.100944
30
-1.844809
11
-4.573483
21
-3.100944
31
-1.573483
12
-4.665877
22
-3.542058
32
-1.665877
13
-4.317406
23
-3.542058
33
-1.953134
0
3DFACE
8
ball - ball_partition
62
10
62
10
10
-3.869471
20
-3.100944
30
-2.048345
11
-4.244339
21
-3.100944
31
-1.844809
12
-4.317406
22
-3.542058
32
-1.953134
13
-3.920526
23
-3.542058
33
-2.168622
0
3DFACE
8
ball - ball_partition
62
10
62
10
10
-3.462654
20
-3.100944
30
-2.176615
11
-3.869471
21
-3.100944
31
-2.048345
12
-3.920526
22
-3.542058
32
-2.168622
13
-3.489821
23
-3.542058
33
-2.304423
0
3DFACE
8
ball - ball_partition
62
10
62
10
10
-3.000000
20
-3.100944
30
-2.225241
11
-3.462654
21
-3.100944
31
-2.176615
12
-3.489821
22
-3.542058
32
-2.304423
13
-3.000000
23
-3.542058
33
-2.355906
0
3DFACE
8
ball - ball_partition
62
10
62
10
10
-2.575404
20
-3.100944
30
-2.184357
11
-3.000000
21
-3.100944
31
-2.225241
12
-3.000000
22
-3.542058
32
-2.355906
13
-2.550472
23
-3.542058
33
-2.312621
0
3DFACE
8
ball - ball_partition
62
10
62
10
10
-2.166409
20
-3.100944
30
-2.063208
11
-2.575404
21
-3.100944
31
-2.184357
12
-2.550472
22
-3.542058
32
-2.312621
13
-2.117462
23
-3.542058
33
-2.184357
0
3DFACE
8
ball - ball_partition
62
10
62
10
10
-1.788046
20
-3.100944
30
-1.866244
11
-2.166409
21
-3.100944
31
-2.063208
12
-2.117462
22
-3.542058
32
-2.184357
13
-1.716882
23
-3.542058
33
-1.975828
0
3DFACE
8
ball - ball_partition
62
10
62
10
10
-1.426517
20
-3.100944
30
-1.573483
11
-1.788046
21
-3.100944
31
-1.866244
12
-1.716882
22
-3.542058
32
-1.975828
13
-1.334123
23
-3.542058
33
-1.665877
0
3DFACE
8
ball - ball_partition
62
10
62
10
10
-1.155191
20
-3.100944
30
-1.244339
11
-1.426517
21
-3.100944
31
-1.573483
12
-1.334123
22
-3.542058
32
-1.665877
13
-1.046866
23
-3.542058
33
-1.317405
0
3DFACE
8
ball - ball_partition
62
10
62
10
10
-0.951654
20
-3.100944
30
-0.869471
11
-1.155191
21
-3.100944
31
-1.244339
12
-1.046866
22
-3.542058
32
-1.317405
13
-0.831378
23
-3.542058
33
-0.920525
0
3DFACE
8
ball - ball_partition
62
10
62
10
10
-0.823385
20
-3.100944
30
-0.462654
11
-0.951654
21
-3.100944
31
-0.869471
12
-0.831378
22
-3.542058
32
-0.920525
13
-0.695577
23
-3.542058
33
-0.489820
0
3DFACE
8
ball - ball_partition
62
10
62
10
10
-0.774759
20
-3.100944
30
0.000000
11
-0.823385
21
-3.100944
31
-0.462654
12
-0.695577
22
-3.542058
32
-0.489820
13
-0.644094
23
-3.542058
33
0.000000
0
3DFACE
8
ball - ball_partition
62
10
62
10
10
-1.024171
20
-2.692866
30
0.384062
11
-0.987190
21
-2.692866
31
0.000000
12
-0.774759
22
-3.100944
32
0.000000
13
-0.815643
23
-3.100944
33
0.424596
0
3DFACE
8
ball - ball_partition
62
10
62
10
10
-1.133756
20
-2.692866
30
0.754012
11
-1.024171
21
-2.692866
31
0.384062
12
-0.815643
22
-3.100944
32
0.424596
13
-0.936792
23
-3.100944
33
0.833590
0
3DFACE
8
ball - ball_partition
62
10
62
10
10
-1.311916
20
-2.692866
30
1.096255
11
-1.133756
21
-2.692866
31
0.754012
12
-0.936792
22
-3.100944
32
0.833590
13
-1.133756
23
-3.100944
33
1.211953
0
3DFACE
8
ball - ball_partition
62
10
62
10
10
-1.576729
20
-2.692866
30
1.423271
11
-1.311916
21
-2.692866
31
1.096255
12
-1.133756
22
-3.100944
32
1.211953
13
-1.426517
23
-3.100944
33
1.573483
0
3DFACE
8
ball - ball_partition
62
10
62
10
10
-1.874451
20
-2.692866
30
1.668695
11
-1.576729
21
-2.692866
31
1.423271
12
-1.426517
22
-3.100944
32
1.573483
13
-1.755661
23
-3.100944
33
1.844809
0
3DFACE
8
ball - ball_partition
62
10
62
10
10
-2.213533
20
-2.692866
30
1.852801
11
-1.874451
21
-2.692866
31
1.668695
12
-1.755661
22
-3.100944
32
1.844809
13
-2.130529
23
-3.100944
33
2.048346
0
3DFACE
8
ball - ball_partition
62
10
62
10
10
-2.581513
20
-2.692866
30
1.968825
11
-2.213533
21
-2.692866
31
1.852801
12
-2.130529
22
-3.100944
32
2.048346
13
-2.537346
23
-3.100944
33
2.176615
0
3DFACE
8
ball - ball_partition
62
10
62
10
10
-3.000000
20
-2.692866
30
2.012810
11
-2.581513
21
-2.692866
31
1.968825
12
-2.537346
22
-3.100944
32
2.176615
13
-3.000000
23
-3.100944
33
2.225241
0
3DFACE
8
ball - ball_partition
62
10
62
10
10
-3.384062
20
-2.692866
30
1.975828
11
-3.000000
21
-2.692866
31
2.012810
12
-3.000000
22
-3.100944
32
2.225241
13
-3.424596
23
-3.100944
33
2.184357
0
3DFACE
8
ball - ball_partition
62
10
62
10
10
-3.754012
20
-2.692866
30
1.866244
11
-3.384062
21
-2.692866
31
1.975828
12
-3.424596
22
-3.100944
32
2.184357
13
-3.833590
23
-3.100944
33
2.063208
0
3DFACE
8
ball - ball_partition
62
10
62
10
10
-4.096254
20
-2.692866
30
1.688084
11
-3.754012
21
-2.692866
31
1.866244
12
-3.833590
22
-3.100944
32
2.063208
13
-4.211953
23
-3.100944
33
1.866244
0
3DFACE
8
ball - ball_partition
62
10
62
10
10
-4.423271
20
-2.692866
30
1.423271
11
-4.096254
21
-2.692866
31
1.688084
12
-4.211953
22
-3.100944
32
1.866244
13
-4.573483
23
-3.100944
33
1.573483
0
3DFACE
8
ball - ball_partition
62
10
62
10
10
-4.668694
20
-2.692866
30
1.125549
11
-4.423271
21
-2.692866
31
1.423271
12
-4.573483
22
-3.100944
32
1.573483
13
-4.844809
23
-3.100944
33
1.244339
0
3DFACE
8
ball - ball_partition
62
10
62
10
10
-4.852801
20
-2.692866
30
0.786467
11
-4.668694
21
-2.692866
31
1.125549
12
-4.844809
22
-3.100944
32
1.244339
13
-5.048346
23
-3.100944
33
0.869471
0
3DFACE
8
ball - ball_partition
62
10
62
10
10
-4.968825
20
-2.692866
30
0.418486
11
-4.852801
21
-2.692866
31
0.786467
12
-5.048346
22
-3.100944
32
0.869471
13
-5.176615
23
-3.100944
33
0.462653
0
3DFACE
8
ball - ball_partition
62
10
62
10
10
-5.012810
20
-2.692866
30
-0.000000
11
-4.968825
21
-2.692866
31
0.418486
12
-5.176615
22
-3.100944
32
0.462653
13
-5.225242
23
-3.100944
33
-0.000000
0
3DFACE
8
ball - ball_partition
62
10
62
10
10
-4.975829
20
-2.692866
30
-0.384062
11
-5.012810
21
-2.692866
31
-0.000000
12
-5.225242
22
-3.100944
32
-0.000000
13
-5.184358
23
-3.100944
33
-0.424596
0
3DFACE
8
ball - ball_partition
62
10
62
10
10
-4.866244
20
-2.692866
30
-0.754012
11
-4.975829
21
-2.692866
31
-0.384062
12
-5.184358
22
-3.100944
32
-0.424596
13
-5.063208
23
-3.100944
33
-0.833590
0
3DFACE
8
ball - ball_partition
62
10
62
10
10
-4.688084
20
-2.692866
30
-1.096254
11
-4.866244
21
-2.692866
31
-0.754012
12
-5.063208
22
-3.100944
32
-0.833590
13
-4.866244
23
-3.100944
33
-1.211953
0
3DFACE
8
ball - ball_partition
62
10
62
10
10
-4.423271
20
-2.692866
30
-1.423271
11
-4.688084
21
-2.692866
31
-1.096254
12
-4.866244
22
-3.100944
32
-1.211953
13
-4.573483
23
-3.100944
33
-1.573483
0
3DFACE
8
ball - ball_partition
62
10
62
10
10
-4.125549
20
-2.692866
30
-1.668695
11
-4.423271
21
-2.692866
31
-1.423271
12
-4.573483
22
-3.100944
32
-1.573483
13
-4.244339
23
-3.100944
33
-1.844809
0
3DFACE
8
ball - ball_partition
62
10
62
10
10
-3.786468
20
-2.692866
30
-1.852801
11
-4.125549
21
-2.692866
31
-1.668695
12
-4.244339
22
-3.100944
32
-1.844809
13
-3.869471
23
-3.100944
33
-2.048345
0
3DFACE
8
ball - ball_partition
62
10
62
10
10
-3.418487
20
-2.692866
30
-1.968825
11
-3.786468
21
-2.692866
31
-1.852801
12
-3.869471
22
-3.100944
32
-2.048345
13
-3.462654
23
-3.100944
33
-2.176615
0
3DFACE
8
ball - ball_partition
62
10
62
10
10
-3.000000
20
-2.692866
30
-2.012810
11
-3.418487
21
-2.692866
31
-1.968825
12
-3.462654
22
-3.100944
32
-2.176615
13
-3.000000
23
-3.100944
33
-2.225241
0
3DFACE
8
ball - ball_partition
62
10
62
10
10
-2.615938
20
-2.692866
30
-1.975829
11
-3.000000
21
-2.692866
31
-2.012810
12
-3.000000
22
-3.100944
32
-2.225241
13
-2.575404
23
-3.100944
33
-2.184357
0
3DFACE
8
ball - ball_partition
62
10
62
10
10
-2.245988
20
-2.692866
30
-1.866244
11
-2.615938
21
-2.692866
31
-1.975829
12
-2.575404
22
-3.100944
32
-2.184357
13
-2.166409
23
-3.100944
33
-2.063208
0
3DFACE
8
ball - ball_partition
62
10
62
10
10
-1.903745
20
-2.692866
30
-1.688084
11
-2.245988
21
-2.692866
31
-1.866244
12
-2.166409
22
-3.100944
32
-2.063208
13
-1.788046
23
-3.100944
33
-1.866244
0
3DFACE
8
ball - ball_partition
62
10
62
10
10
-1.576729
20
-2.692866
30
-1.423271
11
-1.903745
21
-2.692866
31
-1.688084
12
-1.788046
22
-3.100944
32
-1.866244
13
-1.426517
23
-3.100944
33
-1.573483
0
3DFACE
8
ball - ball_partition
62
10
62
10
10
-1.331305
20
-2.692866
30
-1.125548
11
-1.576729
21
-2.692866
31
-1.423271
12
-1.426517
22
-3.100944
32
-1.573483
13
-1.155191
23
-3.100944
33
-1.244339
0
3DFACE
8
ball - ball_partition
62
10
62
10
10
-1.147199
20
-2.692866
30
-0.786467
11
-1.331305
21
-2.692866
31
-1.125548
12
-1.155191
22
-3.100944
32
-1.244339
13
-0.951654
23
-3.100944
33
-0.869471
0
3DFACE
8
ball - ball_partition
62
10
62
10
10
-1.031175
20
-2.692866
30
-0.418487
11
-1.147199
21
-2.692866
31
-0.786467
12
-0.951654
22
-3.100944
32
-0.869471
13
-0.823385
23
-3.100944
33
-0.462654
0
3DFACE
8
ball - ball_partition
62
10
62
10
10
-0.987190
20
-2.692866
30
0.000000
11
-1.031175
21
-2.692866
31
-0.418487
12
-0.823385
22
-3.100944
32
-0.462654
13
-0.774759
23
-3.100944
33
0.000000
0
3DFACE
8
ball - ball_partition
62
10
62
10
10
-1.334123
20
-2.302944
30
0.323814
11
-1.302944
21
-2.302944
31
0.000000
12
-0.987190
22
-2.692866
32
0.000000
13
-1.024171
23
-2.692866
33
0.384062
0
3DFACE
8
ball - ball_partition
62
10
62
10
10
-1.426517
20
-2.302944
30
0.635728
11
-1.334123
21
-2.302944
31
0.323814
12
-1.024171
22
-2.692866
32
0.384062
13
-1.133756
23
-2.692866
33
0.754012
0
3DFACE
8
ball - ball_partition
62
10
62
10
10
-1.576729
20
-2.302944
30
0.924283
11
-1.426517
21
-2.302944
31
0.635728
12
-1.133756
22
-2.692866
32
0.754012
13
-1.311916
23
-2.692866
33
1.096255
0
3DFACE
8
ball - ball_partition
62
10
62
10
10
-1.800000
20
-2.302944
30
1.200000
11
-1.576729
21
-2.302944
31
0.924283
12
-1.311916
22
-2.692866
32
1.096255
13
-1.576729
23
-2.692866
33
1.423271
0
3DFACE
8
ball - ball_partition
62
10
62
10
10
-2.051018
20
-2.302944
30
1.406923
11
-1.800000
21
-2.302944
31
1.200000
12
-1.576729
22
-2.692866
32
1.423271
13
-1.874451
23
-2.692866
33
1.668695
0
3DFACE
8
ball - ball_partition
62
10
62
10
10
-2.336907
20
-2.302944
30
1.562149
11
-2.051018
21
-2.302944
31
1.406923
12
-1.874451
22
-2.692866
32
1.668695
13
-2.213533
23
-2.692866
33
1.852801
0
3DFACE
8
ball - ball_partition
62
10
62
10
10
-2.647162
20
-2.302944
30
1.659972
11
-2.336907
21
-2.302944
31
1.562149
12
-2.213533
22
-2.692866
32
1.852801
13
-2.581513
23
-2.692866
33
1.968825
0
3DFACE
8
ball - ball_partition
62
10
62
10
10
-3.000000
20
-2.302944
30
1.697056
11
-2.647162
21
-2.302944
31
1.659972
12
-2.581513
22
-2.692866
32
1.968825
13
-3.000000
23
-2.692866
33
2.012810
0
3DFACE
8
ball - ball_partition
62
10
62
10
10
-3.323814
20
-2.302944
30
1.665877
11
-3.000000
21
-2.302944
31
1.697056
12
-3.000000
22
-2.692866
32
2.012810
13
-3.384062
23
-2.692866
33
1.975828
0
3DFACE
8
ball - ball_partition
62
10
62
10
10
-3.635728
20
-2.302944
30
1.573483
11
-3.323814
21
-2.302944
31
1.665877
12
-3.384062
22
-2.692866
32
1.975828
13
-3.754012
23
-2.692866
33
1.866244
0
3DFACE
8
ball - ball_partition
62
10
62
10
10
-3.924283
20
-2.302944
30
1.423271
11
-3.635728
21
-2.302944
31
1.573483
12
-3.754012
22
-2.692866
32
1.866244
13
-4.096254
23
-2.692866
33
1.688084
0
3DFACE
8
ball - ball_partition
62
10
62
10
10
-4.200000
20
-2.302944
30
1.200000
11
-3.924283
21
-2.302944
31
1.423271
12
-4.096254
22
-2.692866
32
1.688084
13
-4.423271
23
-2.692866
33
1.423271
0
3DFACE
8
ball - ball_partition
62
10
62
10
10
-4.406923
20
-2.302944
30
0.948982
11
-4.200000
21
-2.302944
31
1.200000
12
-4.423271
22
-2.692866
32
1.423271
13
-4.668694
23
-2.692866
33
1.125549
0
3DFACE
8
ball - ball_partition
62
10
62
10
10
-4.562149
20
-2.302944
30
0.663093
11
-4.406923
21
-2.302944
31
0.948982
12
-4.668694
22
-2.692866
32
1.125549
13
-4.852801
23
-2.692866
33
0.786467
0
3DFACE
8
ball - ball_partition
62
10
62
10
10
-4.659972
20
-2.302944
30
0.352838
11
-4.562149
21
-2.302944
31
0.663093
12
-4.852801
22
-2.692866
32
0.786467
13
-4.968825
23
-2.692866
33
0.418486
0
3DFACE
8
ball - ball_partition
62
10
62
10
10
-4.697056
20
-2.302944
30
-0.000000
11
-4.659972
21
-2.302944
31
0.352838
12
-4.968825
22
-2.692866
32
0.418486
13
-5.012810
23
-2.692866
33
-0.000000
0
3DFACE
8
ball - ball_partition
62
10
62
10
10
-4.665877
20
-2.302944
30
-0.323814
11
-4.697056
21
-2.302944
31
-0.000000
12
-5.012810
22
-2.692866
32
-0.000000
13
-4.975829
23
-2.692866
33
-0.384062
0
3DFACE
8
ball - ball_partition
62
10
62
10
10
-4.573483
20
-2.302944
30
-0.635729
11
-4.665877
21
-2.302944
31
-0.323814
12
-4.975829
22
-2.692866
32
-0.384062
13
-4.866244
23
-2.692866
33
-0.754012
0
3DFACE
8
ball - ball_partition
62
10
62
10
10
-4.423271
20
-2.302944
30
-0.924283
11
-4.573483
21
-2.302944
31
-0.635729
12
-4.866244
22
-2.692866
32
-0.754012
13
-4.688084
23
-2.692866
33
-1.096254
0
3DFACE
8
ball - ball_partition
62
10
62
10
10
-4.200000
20
-2.302944
30
-1.200000
11
-4.423271
21
-2.302944
31
-0.924283
12
-4.688084
22
-2.692866
32
-1.096254
13
-4.423271
23
-2.692866
33
-1.423271
0
3DFACE
8
ball - ball_partition
62
10
62
10
10
-3.948982
20
-2.302944
30
-1.406924
11
-4.200000
21
-2.302944
31
-1.200000
12
-4.423271
22
-2.692866
32
-1.423271
13
-4.125549
23
-2.692866
33
-1.668695
0
3DFACE
8
ball - ball_partition
62
10
62
10
10
-3.663093
20
-2.302944
30
-1.562148
11
-3.948982
21
-2.302944
31
-1.406924
12
-4.125549
22
-2.692866
32
-1.668695
13
-3.786468
23
-2.692866
33
-1.852801
0
3DFACE
8
ball - ball_partition
62
10
62
10
10
-3.352838
20
-2.302944
30
-1.659971
11
-3.663093
21
-2.302944
31
-1.562148
12
-3.786468
22
-2.692866
32
-1.852801
13
-3.418487
23
-2.692866
33
-1.968825
0
3DFACE
8
ball - ball_partition
62
10
62
10
10
-3.000000
20
-2.302944
30
-1.697056
11
-3.352838
21
-2.302944
31
-1.659971
12
-3.418487
22
-2.692866
32
-1.968825
13
-3.000000
23
-2.692866
33
-2.012810
0
3DFACE
8
ball - ball_partition
62
10
62
10
10
-2.676187
20
-2.302944
30
-1.665877
11
-3.000000
21
-2.302944
31
-1.697056
12
-3.000000
22
-2.692866
32
-2.012810
13
-2.615938
23
-2.692866
33
-1.975829
0
3DFACE
8
ball - ball_partition
62
10
62
10
10
-2.364271
20
-2.302944
30
-1.573483
11
-2.676187
21
-2.302944
31
-1.665877
12
-2.615938
22
-2.692866
32
-1.975829
13
-2.245988
23
-2.692866
33
-1.866244
0
3DFACE
8
ball - ball_partition
62
10
62
10
10
-2.075717
20
-2.302944
30
-1.423271
11
-2.364271
21
-2.302944
31
-1.573483
12
-2.245988
22
-2.692866
32
-1.866244
13
-1.903745
23
-2.692866
33
-1.688084
0
3DFACE
8
ball - ball_partition
62
10
62
10
10
-1.800000
20
-2.302944
30
-1.200000
11
-2.075717
21
-2.302944
31
-1.423271
12
-1.903745
22
-2.692866
32
-1.688084
13
-1.576729
23
-2.692866
33
-1.423271
0
3DFACE
8
ball - ball_partition
62
10
62
10
10
-1.593076
20
-2.302944
30
-0.948982
11
-1.800000
21
-2.302944
31
-1.200000
12
-1.576729
22
-2.692866
32
-1.423271
13
-1.331305
23
-2.692866
33
-1.125548
0
3DFACE
8
ball - ball_partition
62
10
62
10
10
-1.437851
20
-2.302944
30
-0.663093
11
-1.593076
21
-2.302944
31
-0.948982
12
-1.331305
22
-2.692866
32
-1.125548
13
-1.147199
23
-2.692866
33
-0.786467
0
3DFACE
8
ball - ball_partition
62
10
62
10
10
-1.340028
20
-2.302944
30
-0.352838
11
-1.437851
21
-2.302944
31
-0.663093
12
-1.147199
22
-2.692866
32
-0.786467
13
-1.031175
23
-2.692866
33
-0.418487
0
3DFACE
8
ball - ball_partition
62
10
62
10
10
-1.302944
20
-2.302944
30
0.000000
11
-1.340028
21
-2.302944
31
-0.352838
12
-1.031175
22
-2.692866
32
-0.418487
13
-0.987190
23
-2.692866
33
0.000000
0
3DFACE
8
ball - ball_partition
62
10
62
10
10
-1.682594
20
-2.010310
30
0.256078
11
-1.657937
21
-2.010310
31
0.000000
12
-1.302944
22
-2.302944
32
0.000000
13
-1.334123
23
-2.302944
33
0.323814
0
3DFACE
8
ball - ball_partition
62
10
62
10
10
-1.755661
20
-2.010310
30
0.502746
11
-1.682594
21
-2.010310
31
0.256078
12
-1.334123
22
-2.302944
32
0.323814
13
-1.426517
23
-2.302944
33
0.635728
0
3DFACE
8
ball - ball_partition
62
10
62
10
10
-1.874451
20
-2.010310
30
0.730940
11
-1.755661
21
-2.010310
31
0.502746
12
-1.426517
22
-2.302944
32
0.635728
13
-1.576729
23
-2.302944
33
0.924283
0
3DFACE
8
ball - ball_partition
62
10
62
10
10
-2.051018
20
-2.010310
30
0.948982
11
-1.874451
21
-2.010310
31
0.730940
12
-1.576729
22
-2.302944
32
0.924283
13
-1.800000
23
-2.302944
33
1.200000
0
3DFACE
8
ball - ball_partition
62
10
62
10
10
-2.249528
20
-2.010310
30
1.112621
11
-2.051018
21
-2.010310
31
0.948982
12
-1.800000
22
-2.302944
32
1.200000
13
-2.051018
23
-2.302944
33
1.406923
0
3DFACE
8
ball - ball_partition
62
10
62
10
10
-2.475614
20
-2.010310
30
1.235376
11
-2.249528
21
-2.010310
31
1.112621
12
-2.051018
22
-2.302944
32
1.406923
13
-2.336907
23
-2.302944
33
1.562149
0
3DFACE
8
ball - ball_partition
62
10
62
10
10
-2.720969
20
-2.010310
30
1.312736
11
-2.475614
21
-2.010310
31
1.235376
12
-2.336907
22
-2.302944
32
1.562149
13
-2.647162
23
-2.302944
33
1.659972
0
3DFACE
8
ball - ball_partition
62
10
62
10
10
-3.000000
20
-2.010310
30
1.342063
11
-2.720969
21
-2.010310
31
1.312736
12
-2.647162
22
-2.302944
32
1.659972
13
-3.000000
23
-2.302944
33
1.697056
0
3DFACE
8
ball - ball_partition
62
10
62
10
10
-3.256078
20
-2.010310
30
1.317406
11
-3.000000
21
-2.010310
31
1.342063
12
-3.000000
22
-2.302944
32
1.697056
13
-3.323814
23
-2.302944
33
1.665877
0
3DFACE
8
ball - ball_partition
62
10
62
10
10
-3.502746
20
-2.010310
30
1.244339
11
-3.256078
21
-2.010310
31
1.317406
12
-3.323814
22
-2.302944
32
1.665877
13
-3.635728
23
-2.302944
33
1.573483
0
3DFACE
8
ball - ball_partition
62
10
62
10
10
-3.730940
20
-2.010310
30
1.125549
11
-3.502746
21
-2.010310
31
1.244339
12
-3.635728
22
-2.302944
32
1.573483
13
-3.924283
23
-2.302944
33
1.423271
0
3DFACE
8
ball - ball_partition
62
10
62
10
10
-3.948982
20
-2.010310
30
0.948982
11
-3.730940
21
-2.010310
31
1.125549
12
-3.924283
22
-2.302944
32
1.423271
13
-4.200000
23
-2.302944
33
1.200000
0
3DFACE
8
ball - ball_partition
62
10
62
10
10
-4.112621
20
-2.010310
30
0.750472
11
-3.948982
21
-2.010310
31
0.948982
12
-4.200000
22
-2.302944
32
1.200000
13
-4.406923
23
-2.302944
33
0.948982
0
3DFACE
8
ball - ball_partition
62
10
62
10
10
-4.235375
20
-2.010310
30
0.524386
11
-4.112621
21
-2.010310
31
0.750472
12
-4.406923
22
-2.302944
32
0.948982
13
-4.562149
23
-2.302944
33
0.663093
0
3DFACE
8
ball - ball_partition
62
10
62
10
10
-4.312736
20
-2.010310
30
0.279030
11
-4.235375
21
-2.010310
31
0.524386
12
-4.562149
22
-2.302944
32
0.663093
13
-4.659972
23
-2.302944
33
0.352838
0
3DFACE
8
ball - ball_partition
62
10
62
10
10
-4.342063
20
-2.010310
30
-0.000000
11
-4.312736
21
-2.010310
31
0.279030
12
-4.659972
22
-2.302944
32
0.352838
13
-4.697056
23
-2.302944
33
-0.000000
0
3DFACE
8
ball - ball_partition
62
10
62
10
10
-4.317406
20
-2.010310
30
-0.256078
11
-4.342063
21
-2.010310
31
-0.000000
12
-4.697056
22
-2.302944
32
-0.000000
13
-4.665877
23
-2.302944
33
-0.323814
0
3DFACE
8
ball - ball_partition
62
10
62
10
10
-4.244339
20
-2.010310
30
-0.502746
11
-4.317406
21
-2.010310
31
-0.256078
12
-4.665877
22
-2.302944
32
-0.323814
13
-4.573483
23
-2.302944
33
-0.635729
0
3DFACE
8
ball - ball_partition
62
10
62
10
10
-4.125549
20
-2.010310
30
-0.730940
11
-4.244339
21
-2.010310
31
-0.502746
12
-4.573483
22
-2.302944
32
-0.635729
13
-4.423271
23
-2.302944
33
-0.924283
0
3DFACE
8
ball - ball_partition
62
10
62
10
10
-3.948982
20
-2.010310
30
-0.948982
11
-4.125549
21
-2.010310
31
-0.730940
12
-4.423271
22
-2.302944
32
-0.924283
13
-4.200000
23
-2.302944
33
-1.200000
0
3DFACE
8
ball - ball_partition
62
10
62
10
10
-3.750472
20
-2.010310
30
-1.112621
11
-3.948982
21
-2.010310
31
-0.948982
12
-4.200000
22
-2.302944
32
-1.200000
13
-3.948982
23
-2.302944
33
-1.406924
0
3DFACE
8
ball - ball_partition
62
10
62
10
10
-3.524386
20
-2.010310
30
-1.235375
11
-3.750472
21
-2.010310
31
-1.112621
12
-3.948982
22
-2.302944
32
-1.406924
13
-3.663093
23
-2.302944
33
-1.562148
0
3DFACE
8
ball - ball_partition
62
10
62
10
10
-3.279031
20
-2.010310
30
-1.312736
11
-3.524386
21
-2.010310
31
-1.235375
12
-3.663093
22
-2.302944
32
-1.562148
13
-3.352838
23
-2.302944
33
-1.659971
0
3DFACE
8
ball - ball_partition
62
10
62
10
10
-3.000000
20
-2.010310
30
-1.342063
11
-3.279031
21
-2.010310
31
-1.312736
12
-3.352838
22
-2.302944
32
-1.659971
13
-3.000000
23
-2.302944
33
-1.697056
0
3DFACE
8
ball - ball_partition
62
10
62
10
10
-2.743922
20
-2.010310
30
-1.317406
11
-3.000000
21
-2.010310
31
-1.342063
12
-3.000000
22
-2.302944
32
-1.697056
13
-2.676187
23
-2.302944
33
-1.665877
0
3DFACE
8
ball - ball_partition
62
10
62
10
10
-2.497254
20
-2.010310
30
-1.244339
11
-2.743922
21
-2.010310
31
-1.317406
12
-2.676187
22
-2.302944
32
-1.665877
13
-2.364271
23
-2.302944
33
-1.573483
0
3DFACE
8
ball - ball_partition
62
10
62
10
10
-2.269060
20
-2.010310
30
-1.125549
11
-2.497254
21
-2.010310
31
-1.244339
12
-2.364271
22
-2.302944
32
-1.573483
13
-2.075717
23
-2.302944
33
-1.423271
0
3DFACE
8
ball - ball_partition
62
10
62
10
10
-2.051018
20
-2.010310
30
-0.948982
11
-2.269060
21
-2.010310
31
-1.125549
12
-2.075717
22
-2.302944
32
-1.423271
13
-1.800000
23
-2.302944
33
-1.200000
0
3DFACE
8
ball - ball_partition
62
10
62
10
10
-1.887379
20
-2.010310
30
-0.750472
11
-2.051018
21
-2.010310
31
-0.948982
12
-1.800000
22
-2.302944
32
-1.200000
13
-1.593076
23
-2.302944
33
-0.948982
0
3DFACE
8
ball - ball_partition
62
10
62
10
10
-1.764624
20
-2.010310
30
-0.524386
11
-1.887379
21
-2.010310
31
-0.750472
12
-1.593076
22
-2.302944
32
-0.948982
13
-1.437851
23
-2.302944
33
-0.663093
0
3DFACE
8
ball - ball_partition
62
10
62
10
10
-1.687264
20
-2.010310
30
-0.279031
11
-1.764624
21
-2.010310
31
-0.524386
12
-1.437851
22
-2.302944
32
-0.663093
13
-1.340028
23
-2.302944
33
-0.352838
0
3DFACE
8
ball - ball_partition
62
10
62
10
10
-1.657937
20
-2.010310
30
0.000000
11
-1.687264
21
-2.010310
31
-0.279031
12
-1.340028
22
-2.302944
32
-0.352838
13
-1.302944
23
-2.302944
33
0.000000
0
3DFACE
8
ball - ball_partition
62
10
62
10
10
-2.079474
20
-1.790788
30
0.178932
11
-2.062245
21
-1.790788
31
0.000000
12
-1.657937
22
-2.010310
32
0.000000
13
-1.682594
23
-2.010310
33
0.256078
0
3DFACE
8
ball - ball_partition
62
10
62
10
10
-2.130529
20
-1.790788
30
0.351289
11
-2.079474
21
-1.790788
31
0.178932
12
-1.682594
22
-2.010310
32
0.256078
13
-1.755661
23
-2.010310
33
0.502746
0
3DFACE
8
ball - ball_partition
62
10
62
10
10
-2.213533
20
-1.790788
30
0.510738
11
-2.130529
21
-1.790788
31
0.351289
12
-1.755661
22
-2.010310
32
0.502746
13
-1.874451
23
-2.010310
33
0.730940
0
3DFACE
8
ball - ball_partition
62
10
62
10
10
-2.336907
20
-1.790788
30
0.663093
11
-2.213533
21
-1.790788
31
0.510738
12
-1.874451
22
-2.010310
32
0.730940
13
-2.051018
23
-2.010310
33
0.948982
0
3DFACE
8
ball - ball_partition
62
10
62
10
10
-2.475614
20
-1.790788
30
0.777434
11
-2.336907
21
-1.790788
31
0.663093
12
-2.051018
22
-2.010310
32
0.948982
13
-2.249528
23
-2.010310
33
1.112621
0
3DFACE
8
ball - ball_partition
62
10
62
10
10
-2.633590
20
-1.790788
30
0.863208
11
-2.475614
21
-1.790788
31
0.777434
12
-2.249528
22
-2.010310
32
1.112621
13
-2.475614
23
-2.010310
33
1.235376
0
3DFACE
8
ball - ball_partition
62
10
62
10
10
-2.805030
20
-1.790788
30
0.917262
11
-2.633590
21
-1.790788
31
0.863208
12
-2.475614
22
-2.010310
32
1.235376
13
-2.720969
23
-2.010310
33
1.312736
0
3DFACE
8
ball - ball_partition
62
10
62
10
10
-3.000000
20
-1.790788
30
0.937755
11
-2.805030
21
-1.790788
31
0.917262
12
-2.720969
22
-2.010310
32
1.312736
13
-3.000000
23
-2.010310
33
1.342063
0
3DFACE
8
ball - ball_partition
62
10
62
10
10
-3.178932
20
-1.790788
30
0.920525
11
-3.000000
21
-1.790788
31
0.937755
12
-3.000000
22
-2.010310
32
1.342063
13
-3.256078
23
-2.010310
33
1.317406
0
3DFACE
8
ball - ball_partition
62
10
62
10
10
-3.351289
20
-1.790788
30
0.869471
11
-3.178932
21
-1.790788
31
0.920525
12
-3.256078
22
-2.010310
32
1.317406
13
-3.502746
23
-2.010310
33
1.244339
0
3DFACE
8
ball - ball_partition
62
10
62
10
10
-3.510738
20
-1.790788
30
0.786467
11
-3.351289
21
-1.790788
31
0.869471
12
-3.502746
22
-2.010310
32
1.244339
13
-3.730940
23
-2.010310
33
1.125549
0
3DFACE
8
ball - ball_partition
62
10
62
10
10
-3.663093
20
-1.790788
30
0.663093
11
-3.510738
21
-1.790788
31
0.786467
12
-3.730940
22
-2.010310
32
1.125549
13
-3.948982
23
-2.010310
33
0.948982
0
3DFACE
8
ball - ball_partition
62
10
62
10
10
-3.777434
20
-1.790788
30
0.524386
11
-3.663093
21
-1.790788
31
0.663093
12
-3.948982
22
-2.010310
32
0.948982
13
-4.112621
23
-2.010310
33
0.750472
0
3DFACE
8
ball - ball_partition
62
10
62
10
10
-3.863208
20
-1.790788
30
0.366410
11
-3.777434
21
-1.790788
31
0.524386
12
-4.112621
22
-2.010310
32
0.750472
13
-4.235375
23
-2.010310
33
0.524386
0
3DFACE
8
ball - ball_partition
62
10
62
10
10
-3.917263
20
-1.790788
30
0.194970
11
-3.863208
21
-1.790788
31
0.366410
12
-4.235375
22
-2.010310
32
0.524386
13
-4.312736
23
-2.010310
33
0.279030
0
3DFACE
8
ball - ball_partition
62
10
62
10
10
-3.937755
20
-1.790788
30
-0.000000
11
-3.917263
21
-1.790788
31
0.194970
12
-4.312736
22
-2.010310
32
0.279030
13
-4.342063
23
-2.010310
33
-0.000000
0
3DFACE
8
ball - ball_partition
62
10
62
10
10
-3.920526
20
-1.790788
30
-0.178932
11
-3.937755
21
-1.790788
31
-0.000000
12
-4.342063
22
-2.010310
32
-0.000000
13
-4.317406
23
-2.010310
33
-0.256078
0
3DFACE
8
ball - ball_partition
62
10
62
10
10
-3.869471
20
-1.790788
30
-0.351289
11
-3.920526
21
-1.790788
31
-0.178932
12
-4.317406
22
-2.010310
32
-0.256078
13
-4.244339
23
-2.010310
33
-0.502746
0
3DFACE
8
ball - ball_partition
62
10
62
10
10
-3.786467
20
-1.790788
30
-0.510738
11
-3.869471
21
-1.790788
31
-0.351289
12
-4.244339
22
-2.010310
32
-0.502746
13
-4.125549
23
-2.010310
33
-0.730940
0
3DFACE
8
ball - ball_partition
62
10
62
10
10
-3.663093
20
-1.790788
30
-0.663093
11
-3.786467
21
-1.790788
31
-0.510738
12
-4.125549
22
-2.010310
32
-0.730940
13
-3.948982
23
-2.010310
33
-0.948982
0
3DFACE
8
ball - ball_partition
62
10
62
10
10
-3.524386
20
-1.790788
30
-0.777434
11
-3.663093
21
-1.790788
31
-0.663093
12
-3.948982
22
-2.010310
32
-0.948982
13
-3.750472
23
-2.010310
33
-1.112621
0
3DFACE
8
ball - ball_partition
62
10
62
10
10
-3.366410
20
-1.790788
30
-0.863208
11
-3.524386
21
-1.790788
31
-0.777434
12
-3.750472
22
-2.010310
32
-1.112621
13
-3.524386
23
-2.010310
33
-1.235375
0
3DFACE
8
ball - ball_partition
62
10
62
10
10
-3.194970
20
-1.790788
30
-0.917262
11
-3.366410
21
-1.790788
31
-0.863208
12
-3.524386
22
-2.010310
32
-1.235375
13
-3.279031
23
-2.010310
33
-1.312736
0
3DFACE
8
ball - ball_partition
62
10
62
10
10
-3.000000
20
-1.790788
30
-0.937755
11
-3.194970
21
-1.790788
31
-0.917262
12
-3.279031
22
-2.010310
32
-1.312736
13
-3.000000
23
-2.010310
33
-1.342063
0
3DFACE
8
ball - ball_partition
62
10
62
10
10
-2.821068
20
-1.790788
30
-0.920525
11
-3.000000
21
-1.790788
31
-0.937755
12
-3.000000
22
-2.010310
32
-1.342063
13
-2.743922
23
-2.010310
33
-1.317406
0
3DFACE
8
ball - ball_partition
62
10
62
10
10
-2.648711
20
-1.790788
30
-0.869471
11
-2.821068
21
-1.790788
31
-0.920525
12
-2.743922
22
-2.010310
32
-1.317406
13
-2.497254
23
-2.010310
33
-1.244339
0
3DFACE
8
ball - ball_partition
62
10
62
10
10
-2.489262
20
-1.790788
30
-0.786467
11
-2.648711
21
-1.790788
31
-0.869471
12
-2.497254
22
-2.010310
32
-1.244339
13
-2.269060
23
-2.010310
33
-1.125549
0
3DFACE
8
ball - ball_partition
62
10
62
10
10
-2.336907
20
-1.790788
30
-0.663093
11
-2.489262
21
-1.790788
31
-0.786467
12
-2.269060
22
-2.010310
32
-1.125549
13
-2.051018
23
-2.010310
33
-0.948982
0
3DFACE
8
ball - ball_partition
62
10
62
10
10
-2.222566
20
-1.790788
30
-0.524386
11
-2.336907
21
-1.790788
31
-0.663093
12
-2.051018
22
-2.010310
32
-0.948982
13
-1.887379
23
-2.010310
33
-0.750472
0
3DFACE
8
ball - ball_partition
62
10
62
10
10
-2.136792
20
-1.790788
30
-0.366410
11
-2.222566
21
-1.790788
31
-0.524386
12
-1.887379
22
-2.010310
32
-0.750472
13
-1.764624
23
-2.010310
33
-0.524386
0
3DFACE
8
ball - ball_partition
62
10
62
10
10
-2.082737
20
-1.790788
30
-0.194970
11
-2.136792
21
-1.790788
31
-0.366410
12
-1.764624
22
-2.010310
32
-0.524386
13
-1.687264
23
-2.010310
33
-0.279031
0
3DFACE
8
ball - ball_partition
62
10
62
10
10
-2.062245
20
-1.790788
30
0.000000
11
-2.082737
21
-1.790788
31
-0.194970
12
-1.687264
22
-2.010310
32
-0.279031
13
-1.657937
23
-2.010310
33
0.000000
0
3DFACE
8
ball - ball_partition
62
10
62
10
10
-2.510180
20
-1.652446
30
0.095211
11
-2.501012
21
-1.652446
31
0.000000
12
-2.062245
22
-1.790788
32
0.000000
13
-2.079474
23
-1.790788
33
0.178932
0
3DFACE
8
ball - ball_partition
62
10
62
10
10
-2.537346
20
-1.652446
30
0.186924
11
-2.510180
21
-1.652446
31
0.095211
12
-2.079474
22
-1.790788
32
0.178932
13
-2.130529
23
-1.790788
33
0.351289
0
3DFACE
8
ball - ball_partition
62
10
62
10
10
-2.581513
20
-1.652446
30
0.271768
11
-2.537346
21
-1.652446
31
0.186924
12
-2.130529
22
-1.790788
32
0.351289
13
-2.213533
23
-1.790788
33
0.510738
0
3DFACE
8
ball - ball_partition
62
10
62
10
10
-2.647162
20
-1.652446
30
0.352838
11
-2.581513
21
-1.652446
31
0.271768
12
-2.213533
22
-1.790788
32
0.510738
13
-2.336907
23
-1.790788
33
0.663093
0
3DFACE
8
ball - ball_partition
62
10
62
10
10
-2.720969
20
-1.652446
30
0.413680
11
-2.647162
21
-1.652446
31
0.352838
12
-2.336907
22
-1.790788
32
0.663093
13
-2.475614
23
-1.790788
33
0.777434
0
3DFACE
8
ball - ball_partition
62
10
62
10
10
-2.805030
20
-1.652446
30
0.459321
11
-2.720969
21
-1.652446
31
0.413680
12
-2.475614
22
-1.790788
32
0.777434
13
-2.633590
23
-1.790788
33
0.863208
0
3DFACE
8
ball - ball_partition
62
10
62
10
10
-2.896255
20
-1.652446
30
0.488084
11
-2.805030
21
-1.652446
31
0.459321
12
-2.633590
22
-1.790788
32
0.863208
13
-2.805030
23
-1.790788
33
0.917262
0
3DFACE
8
ball - ball_partition
62
10
62
10
10
-3.000000
20
-1.652446
30
0.498988
11
-2.896255
21
-1.652446
31
0.488084
12
-2.805030
22
-1.790788
32
0.917262
13
-3.000000
23
-1.790788
33
0.937755
0
3DFACE
8
ball - ball_partition
62
10
62
10
10
-3.095212
20
-1.652446
30
0.489820
11
-3.000000
21
-1.652446
31
0.498988
12
-3.000000
22
-1.790788
32
0.937755
13
-3.178932
23
-1.790788
33
0.920525
0
3DFACE
8
ball - ball_partition
62
10
62
10
10
-3.186924
20
-1.652446
30
0.462654
11
-3.095212
21
-1.652446
31
0.489820
12
-3.178932
22
-1.790788
32
0.920525
13
-3.351289
23
-1.790788
33
0.869471
0
3DFACE
8
ball - ball_partition
62
10
62
10
10
-3.271768
20
-1.652446
30
0.418487
11
-3.186924
21
-1.652446
31
0.462654
12
-3.351289
22
-1.790788
32
0.869471
13
-3.510738
23
-1.790788
33
0.786467
0
3DFACE
8
ball - ball_partition
62
10
62
10
10
-3.352838
20
-1.652446
30
0.352838
11
-3.271768
21
-1.652446
31
0.418487
12
-3.510738
22
-1.790788
32
0.786467
13
-3.663093
23
-1.790788
33
0.663093
0
3DFACE
8
ball - ball_partition
62
10
62
10
10
-3.413680
20
-1.652446
30
0.279031
11
-3.352838
21
-1.652446
31
0.352838
12
-3.663093
22
-1.790788
32
0.663093
13
-3.777434
23
-1.790788
33
0.524386
0
3DFACE
8
ball - ball_partition
62
10
62
10
10
-3.459321
20
-1.652446
30
0.194970
11
-3.413680
21
-1.652446
31
0.279031
12
-3.777434
22
-1.790788
32
0.524386
13
-3.863208
23
-1.790788
33
0.366410
0
3DFACE
8
ball - ball_partition
62
10
62
10
10
-3.488084
20
-1.652446
30
0.103745
11
-3.459321
21
-1.652446
31
0.194970
12
-3.863208
22
-1.790788
32
0.366410
13
-3.917263
23
-1.790788
33
0.194970
0
3DFACE
8
ball - ball_partition
62
10
62
10
10
-3.498988
20
-1.652446
30
-0.000000
11
-3.488084
21
-1.652446
31
0.103745
12
-3.917263
22
-1.790788
32
0.194970
13
-3.937755
23
-1.790788
33
-0.000000
0
3DFACE
8
ball - ball_partition
62
10
62
10
10
-3.489820
20
-1.652446
30
-0.095211
11
-3.498988
21
-1.652446
31
-0.000000
12
-3.937755
22
-1.790788
32
-0.000000
13
-3.920526
23
-1.790788
33
-0.178932
0
3DFACE
8
ball - ball_partition
62
10
62
10
10
-3.462654
20
-1.652446
30
-0.186924
11
-3.489820
21
-1.652446
31
-0.095211
12
-3.920526
22
-1.790788
32
-0.178932
13
-3.869471
23
-1.790788
33
-0.351289
0
3DFACE
8
ball - ball_partition
62
10
62
10
10
-3.418487
20
-1.652446
30
-0.271768
11
-3.462654
21
-1.652446
31
-0.186924
12
-3.869471
22
-1.790788
32
-0.351289
13
-3.786467
23
-1.790788
33
-0.510738
0
3DFACE
8
ball - ball_partition
62
10
62
10
10
-3.352838
20
-1.652446
30
-0.352838
11
-3.418487
21
-1.652446
31
-0.271768
12
-3.786467
22
-1.790788
32
-0.510738
13
-3.663093
23
-1.790788
33
-0.663093
0
3DFACE
8
ball - ball_partition
62
10
62
10
10
-3.279031
20
-1.652446
30
-0.413680
11
-3.352838
21
-1.652446
31
-0.352838
12
-3.663093
22
-1.790788
32
-0.663093
13
-3.524386
23
-1.790788
33
-0.777434
0
3DFACE
8
ball - ball_partition
62
10
62
10
10
-3.194970
20
-1.652446
30
-0.459321
11
-3.279031
21
-1.652446
31
-0.413680
12
-3.524386
22
-1.790788
32
-0.777434
13
-3.366410
23
-1.790788
33
-0.863208
0
3DFACE
8
ball - ball_partition
62
10
62
10
10
-3.103745
20
-1.652446
30
-0.488084
11
-3.194970
21
-1.652446
31
-0.459321
12
-3.366410
22
-1.790788
32
-0.863208
13
-3.194970
23
-1.790788
33
-0.917262
0
3DFACE
8
ball - ball_partition
62
10
62
10
10
-3.000000
20
-1.652446
30
-0.498988
11
-3.103745
21
-1.652446
31
-0.488084
12
-3.194970
22
-1.790788
32
-0.917262
13
-3.000000
23
-1.790788
33
-0.937755
0
3DFACE
8
ball - ball_partition
62
10
62
10
10
-2.904789
20
-1.652446
30
-0.489820
11
-3.000000
21
-1.652446
31
-0.498988
12
-3.000000
22
-1.790788
32
-0.937755
13
-2.821068
23
-1.790788
33
-0.920525
0
3DFACE
8
ball - ball_partition
62
10
62
10
10
-2.813076
20
-1.652446
30
-0.462654
11
-2.904789
21
-1.652446
31
-0.489820
12
-2.821068
22
-1.790788
32
-0.920525
13
-2.648711
23
-1.790788
33
-0.869471
0
3DFACE
8
ball - ball_partition
62
10
62
10
10
-2.728232
20
-1.652446
30
-0.418487
11
-2.813076
21
-1.652446
31
-0.462654
12
-2.648711
22
-1.790788
32
-0.869471
13
-2.489262
23
-1.790788
33
-0.786467
0
3DFACE
8
ball - ball_partition
62
10
62
10
10
-2.647162
20
-1.652446
30
-0.352838
11
-2.728232
21
-1.652446
31
-0.418487
12
-2.489262
22
-1.790788
32
-0.786467
13
-2.336907
23
-1.790788
33
-0.663093
0
3DFACE
8
ball - ball_partition
62
10
62
10
10
-2.586320
20
-1.652446
30
-0.279030
11
-2.647162
21
-1.652446
31
-0.352838
12
-2.336907
22
-1.790788
32
-0.663093
13
-2.222566
23
-1.790788
33
-0.524386
0
3DFACE
8
ball - ball_partition
62
10
62
10
10
-2.540679
20
-1.652446
30
-0.194970
11
-2.586320
21
-1.652446
31
-0.279030
12
-2.222566
22
-1.790788
32
-0.524386
13
-2.136792
23
-1.790788
33
-0.366410
0
3DFACE
8
ball - ball_partition
62
10
62
10
10
-2.511916
20
-1.652446
30
-0.103745
11
-2.540679
21
-1.652446
31
-0.194970
12
-2.136792
22
-1.790788
32
-0.366410
13
-2.082737
23
-1.790788
33
-0.194970
0
3DFACE
8
ball - ball_partition
62
10
62
10
10
-2.501012
20
-1.652446
30
0.000000
11
-2.511916
21
-1.652446
31
-0.103745
12
-2.082737
22
-1.790788
32
-0.194970
13
-2.062245
23
-1.790788
33
0.000000
0
3DFACE
8
ball - ball_partition
62
10
10
-3.000000
20
-1.600000
30
0.000000
11
-2.511916
21
-1.652446
31
-0.103745
12
-2.501012
22
-1.652446
32
0.000000
13
-2.501012
23
-1.652446
33
0.000000
0
3DFACE
8
ball - ball_partition
62
10
10
-3.000000
20
-1.600000
30
0.000000
11
-2.540679
21
-1.652446
31
-0.194970
12
-2.511916
22
-1.652446
32
-0.103745
13
-2.511916
23
-1.652446
33
-0.103745
0
3DFACE
8
ball - ball_partition
62
10
10
-3.000000
20
-1.600000
30
0.000000
11
-2.586320
21
-1.652446
31
-0.279030
12
-2.540679
22
-1.652446
32
-0.194970
13
-2.540679
23
-1.652446
33
-0.194970
0
3DFACE
8
ball - ball_partition
62
10
10
-3.000000
20
-1.600000
30
0.000000
11
-2.647162
21
-1.652446
31
-0.352838
12
-2.586320
22
-1.652446
32
-0.279030
13
-2.586320
23
-1.652446
33
-0.279030
0
3DFACE
8
ball - ball_partition
62
10
10
-3.000000
20
-1.600000
30
0.000000
11
-2.728232
21
-1.652446
31
-0.418487
12
-2.647162
22
-1.652446
32
-0.352838
13
-2.647162
23
-1.652446
33
-0.352838
0
3DFACE
8
ball - ball_partition
62
10
10
-3.000000
20
-1.600000
30
0.000000
11
-2.813076
21
-1.652446
31
-0.462654
12
-2.728232
22
-1.652446
32
-0.418487
13
-2.728232
23
-1.652446
33
-0.418487
0
3DFACE
8
ball - ball_partition
62
10
10
-3.000000
20
-1.600000
30
0.000000
11
-2.904789
21
-1.652446
31
-0.489820
12
-2.813076
22
-1.652446
32
-0.462654
13
-2.813076
23
-1.652446
33
-0.462654
0
3DFACE
8
ball - ball_partition
62
10
10
-3.000000
20
-1.600000
30
0.000000
11
-3.000000
21
-1.652446
31
-0.498988
12
-2.904789
22
-1.652446
32
-0.489820
13
-2.904789
23
-1.652446
33
-0.489820
0
3DFACE
8
ball - ball_partition
62
10
10
-3.000000
20
-1.600000
30
0.000000
11
-3.103745
21
-1.652446
31
-0.488084
12
-3.000000
22
-1.652446
32
-0.498988
13
-3.000000
23
-1.652446
33
-0.498988
0
3DFACE
8
ball - ball_partition
62
10
10
-3.000000
20
-1.600000
30
0.000000
11
-3.194970
21
-1.652446
31
-0.459321
12
-3.103745
22
-1.652446
32
-0.488084
13
-3.103745
23
-1.652446
33
-0.488084
0
3DFACE
8
ball - ball_partition
62
10
10
-3.000000
20
-1.600000
30
0.000000
11
-3.279031
21
-1.652446
31
-0.413680
12
-3.194970
22
-1.652446
32
-0.459321
13
-3.194970
23
-1.652446
33
-0.459321
0
3DFACE
8
ball - ball_partition
62
10
10
-3.000000
20
-1.600000
30
0.000000
11
-3.352838
21
-1.652446
31
-0.352838
12
-3.279031
22
-1.652446
32
-0.413680
13
-3.279031
23
-1.652446
33
-0.413680
0
3DFACE
8
ball - ball_partition
62
10
10
-3.000000
20
-1.600000
30
0.000000
11
-3.418487
21
-1.652446
31
-0.271768
12
-3.352838
22
-1.652446
32
-0.352838
13
-3.352838
23
-1.652446
33
-0.352838
0
3DFACE
8
ball - ball_partition
62
10
10
-3.000000
20
-1.600000
30
0.000000
11
-3.462654
21
-1.652446
31
-0.186924
12
-3.418487
22
-1.652446
32
-0.271768
13
-3.418487
23
-1.652446
33
-0.271768
0
3DFACE
8
ball - ball_partition
62
10
10
-3.000000
20
-1.600000
30
0.000000
11
-3.489820
21
-1.652446
31
-0.095211
12
-3.462654
22
-1.652446
32
-0.186924
13
-3.462654
23
-1.652446
33
-0.186924
0
3DFACE
8
ball - ball_partition
62
10
10
-3.000000
20
-1.600000
30
0.000000
11
-3.498988
21
-1.652446
31
-0.000000
12
-3.489820
22
-1.652446
32
-0.095211
13
-3.489820
23
-1.652446
33
-0.095211
0
3DFACE
8
ball - ball_partition
62
10
10
-3.000000
20
-1.600000
30
0.000000
11
-3.488084
21
-1.652446
31
0.103745
12
-3.498988
22
-1.652446
32
-0.000000
13
-3.498988
23
-1.652446
33
-0.000000
0
3DFACE
8
ball - ball_partition
62
10
10
-3.000000
20
-1.600000
30
0.000000
11
-3.459321
21
-1.652446
31
0.194970
12
-3.488084
22
-1.652446
32
0.103745
13
-3.488084
23
-1.652446
33
0.103745
0
3DFACE
8
ball - ball_partition
62
10
10
-3.000000
20
-1.600000
30
0.000000
11
-3.413680
21
-1.652446
31
0.279031
12
-3.459321
22
-1.652446
32
0.194970
13
-3.459321
23
-1.652446
33
0.194970
0
3DFACE
8
ball - ball_partition
62
10
10
-3.000000
20
-1.600000
30
0.000000
11
-3.352838
21
-1.652446
31
0.352838
12
-3.413680
22
-1.652446
32
0.279031
13
-3.413680
23
-1.652446
33
0.279031
0
3DFACE
8
ball - ball_partition
62
10
10
-3.000000
20
-1.600000
30
0.000000
11
-3.271768
21
-1.652446
31
0.418487
12
-3.352838
22
-1.652446
32
0.352838
13
-3.352838
23
-1.652446
33
0.352838
0
3DFACE
8
ball - ball_partition
62
10
10
-3.000000
20
-1.600000
30
0.000000
11
-3.186924
21
-1.652446
31
0.462654
12
-3.271768
22
-1.652446
32
0.418487
13
-3.271768
23
-1.652446
33
0.418487
0
3DFACE
8
ball - ball_partition
62
10
10
-3.000000
20
-1.600000
30
0.000000
11
-3.095212
21
-1.652446
31
0.489820
12
-3.186924
22
-1.652446
32
0.462654
13
-3.186924
23
-1.652446
33
0.462654
0
3DFACE
8
ball - ball_partition
62
10
10
-3.000000
20
-1.600000
30
0.000000
11
-3.000000
21
-1.652446
31
0.498988
12
-3.095212
22
-1.652446
32
0.489820
13
-3.095212
23
-1.652446
33
0.489820
0
3DFACE
8
ball - ball_partition
62
10
10
-3.000000
20
-1.600000
30
0.000000
11
-2.896255
21
-1.652446
31
0.488084
12
-3.000000
22
-1.652446
32
0.498988
13
-3.000000
23
-1.652446
33
0.498988
0
3DFACE
8
ball - ball_partition
62
10
10
-3.000000
20
-1.600000
30
0.000000
11
-2.805030
21
-1.652446
31
0.459321
12
-2.896255
22
-1.652446
32
0.488084
13
-2.896255
23
-1.652446
33
0.488084
0
3DFACE
8
ball - ball_partition
62
10
10
-3.000000
20
-1.600000
30
0.000000
11
-2.720969
21
-1.652446
31
0.413680
12
-2.805030
22
-1.652446
32
0.459321
13
-2.805030
23
-1.652446
33
0.459321
0
3DFACE
8
ball - ball_partition
62
10
10
-3.000000
20
-1.600000
30
0.000000
11
-2.647162
21
-1.652446
31
0.352838
12
-2.720969
22
-1.652446
32
0.413680
13
-2.720969
23
-1.652446
33
0.413680
0
3DFACE
8
ball - ball_partition
62
10
10
-3.000000
20
-1.600000
30
0.000000
11
-2.581513
21
-1.652446
31
0.271768
12
-2.647162
22
-1.652446
32
0.352838
13
-2.647162
23
-1.652446
33
0.352838
0
3DFACE
8
ball - ball_partition
62
10
10
-3.000000
20
-1.600000
30
0.000000
11
-2.537346
21
-1.652446
31
0.186924
12
-2.581513
22
-1.652446
32
0.271768
13
-2.581513
23
-1.652446
33
0.271768
0
3DFACE
8
ball - ball_partition
62
10
10
-3.000000
20
-1.600000
30
0.000000
11
-2.510180
21
-1.652446
31
0.095211
12
-2.537346
22
-1.652446
32
0.186924
13
-2.537346
23
-1.652446
33
0.186924
0
3DFACE
8
ball - ball_partition
62
10
10
-3.000000
20
-1.600000
30
0.000000
11
-2.501012
21
-1.652446
31
0.000000
12
-2.510180
22
-1.652446
32
0.095211
13
-2.510180
23
-1.652446
33
0.095211
0
LINE
8
ball_wire - ball_partition
62
20
10
3.000000
20
1.600000
30
0.000000
11
5.400000
21
4.000000
31
0.000000
0
LINE
8
ball_wire - ball_partition
62
20
10
3.000000
20
1.600000
30
0.000000
11
3.000000
21
4.000000
31
2.400000
0
LINE
8
ball_wire - ball_partition
62
20
10
3.000000
20
1.600000
30
0.000000
11
0.600000
21
4.000000
31
-0.000000
0
LINE
8
ball_wire - ball_partition
62
20
10
3.000000
20
1.600000
30
0.000000
11
3.000000
21
4.000000
31
-2.400000
0
LINE
8
ball_wire - ball_partition
62
20
10
3.000000
20
6.400000
30
0.000000
11
5.400000
21
4.000000
31
0.000000
0
LINE
8
ball_wire - ball_partition
62
20
10
5.400000
20
4.000000
30
0.000000
11
3.000000
21
4.000000
31
2.400000
0
LINE
8
ball_wire - ball_partition
62
20
10
3.000000
20
6.400000
30
0.000000
11
3.000000
21
4.000000
31
2.400000
0
LINE
8
ball_wire - ball_partition
62
20
10
3.000000
20
4.000000
30
2.400000
11
0.600000
21
4.000000
31
-0.000000
0
LINE
8
ball_wire - ball_partition
62
20
10
3.000000
20
6.400000
30
0.000000
11
0.600000
21
4.000000
31
-0.000000
0
LINE
8
ball_wire - ball_partition
62
20
10
0.600000
20
4.000000
30
-0.000000
11
3.000000
21
4.000000
31
-2.400000
0
LINE
8
ball_wire - ball_partition
62
20
10
3.000000
20
6.400000
30
0.000000
11
3.000000
21
4.000000
31
-2.400000
0
LINE
8
ball_wire - ball_partition
62
20
10
3.000000
20
4.000000
30
-2.400000
11
5.400000
21
4.000000
31
0.000000
0
LINE
8
ball_wire - ball_partition
62
20
10
3.000000
20
-6.400000
30
0.000000
11
3.498988
21
-6.347554
31
0.000000
0
LINE
8
ball_wire - ball_partition
62
20
10
3.000000
20
-6.400000
30
0.000000
11
3.489820
21
-6.347554
31
0.095211
0
LINE
8
ball_wire - ball_partition
62
20
10
3.000000
20
-6.400000
30
0.000000
11
3.462654
21
-6.347554
31
0.186924
0
LINE
8
ball_wire - ball_partition
62
20
10
3.000000
20
-6.400000
30
0.000000
11
3.418487
21
-6.347554
31
0.271768
0
LINE
8
ball_wire - ball_partition
62
20
10
3.000000
20
-6.400000
30
0.000000
11
3.352838
21
-6.347554
31
0.352838
0
LINE
8
ball_wire - ball_partition
62
20
10
3.000000
20
-6.400000
30
0.000000
11
3.279031
21
-6.347554
31
0.413680
0
LINE
8
ball_wire - ball_partition
62
20
10
3.000000
20
-6.400000
30
0.000000
11
3.194970
21
-6.347554
31
0.459321
0
LINE
8
ball_wire - ball_partition
62
20
10
3.000000
20
-6.400000
30
0.000000
11
3.103745
21
-6.347554
31
0.488084
0
LINE
8
ball_wire - ball_partition
62
20
10
3.000000
20
-6.400000
30
0.000000
11
3.000000
21
-6.347554
31
0.498988
0
LINE
8
ball_wire - ball_partition
62
20
10
3.000000
20
-6.400000
30
0.000000
11
2.904788
21
-6.347554
31
0.489820
0
LINE
8
ball_wire - ball_partition
62
20
10
3.000000
20
-6.400000
30
0.000000
11
2.813076
21
-6.347554
31
0.462654
0
LINE
8
ball_wire - ball_partition
62
20
10
3.000000
20
-6.400000
30
0.000000
11
2.728232
21
-6.347554
31
0.418487
0
LINE
8
ball_wire - ball_partition
62
20
10
3.000000
20
-6.400000
30
0.000000
11
2.647162
21
-6.347554
31
0.352838
0
LINE
8
ball_wire - ball_partition
62
20
10
3.000000
20
-6.400000
30
0.000000
11
2.586320
21
-6.347554
31
0.279031
0
LINE
8
ball_wire - ball_partition
62
20
10
3.000000
20
-6.400000
30
0.000000
11
2.540679
21
-6.347554
31
0.194970
0
LINE
8
ball_wire - ball_partition
62
20
10
3.000000
20
-6.400000
30
0.000000
11
2.511916
21
-6.347554
31
0.103745
0
LINE
8
ball_wire - ball_partition
62
20
10
3.000000
20
-6.400000
30
0.000000
11
2.501012
21
-6.347554
31
-0.000000
0
LINE
8
ball_wire - ball_partition
62
20
10
3.000000
20
-6.400000
30
0.000000
11
2.510180
21
-6.347554
31
-0.095211
0
LINE
8
ball_wire - ball_partition
62
20
10
3.000000
20
-6.400000
30
0.000000
11
2.537346
21
-6.347554
31
-0.186924
0
LINE
8
ball_wire - ball_partition
62
20
10
3.000000
20
-6.400000
30
0.000000
11
2.581513
21
-6.347554
31
-0.271768
0
LINE
8
ball_wire - ball_partition
62
20
10
3.000000
20
-6.400000
30
0.000000
11
2.647162
21
-6.347554
31
-0.352838
0
LINE
8
ball_wire - ball_partition
62
20
10
3.000000
20
-6.400000
30
0.000000
11
2.720969
21
-6.347554
31
-0.413680
0
LINE
8
ball_wire - ball_partition
62
20
10
3.000000
20
-6.400000
30
0.000000
11
2.805030
21
-6.347554
31
-0.459321
0
LINE
8
ball_wire - ball_partition
62
20
10
3.000000
20
-6.400000
30
0.000000
11
2.896255
21
-6.347554
31
-0.488084
0
LINE
8
ball_wire - ball_partition
62
20
10
3.000000
20
-6.400000
30
0.000000
11
3.000000
21
-6.347554
31
-0.498988
0
LINE
8
ball_wire - ball_partition
62
20
10
3.000000
20
-6.400000
30
0.000000
11
3.095211
21
-6.347554
31
-0.489820
0
LINE
8
ball_wire - ball_partition
62
20
10
3.000000
20
-6.400000
30
0.000000
11
3.186924
21
-6.347554
31
-0.462654
0
LINE
8
ball_wire - ball_partition
62
20
10
3.000000
20
-6.400000
30
0.000000
11
3.271768
21
-6.347554
31
-0.418487
0
LINE
8
ball_wire - ball_partition
62
20
10
3.000000
20
-6.400000
30
0.000000
11
3.352838
21
-6.347554
31
-0.352838
0
LINE
8
ball_wire - ball_partition
62
20
10
3.000000
20
-6.400000
30
0.000000
11
3.413680
21
-6.347554
31
-0.279030
0
LINE
8
ball_wire - ball_partition
62
20
10
3.000000
20
-6.400000
30
0.000000
11
3.459321
21
-6.347554
31
-0.194970
0
LINE
8
ball_wire - ball_partition
62
20
10
3.000000
20
-6.400000
30
0.000000
11
3.488084
21
-6.347554
31
-0.103745
0
LINE
8
ball_wire - ball_partition
62
20
10
3.498988
20
-6.347554
30
0.000000
11
3.937755
21
-6.209212
31
0.000000
0
LINE
8
ball_wire - ball_partition
62
20
10
3.498988
20
-6.347554
30
0.000000
11
3.489820
21
-6.347554
31
0.095211
0
LINE
8
ball_wire - ball_partition
62
20
10
3.489820
20
-6.347554
30
0.095211
11
3.920526
21
-6.209212
31
0.178932
0
LINE
8
ball_wire - ball_partition
62
20
10
3.489820
20
-6.347554
30
0.095211
11
3.462654
21
-6.347554
31
0.186924
0
LINE
8
ball_wire - ball_partition
62
20
10
3.462654
20
-6.347554
30
0.186924
11
3.869471
21
-6.209212
31
0.351289
0
LINE
8
ball_wire - ball_partition
62
20
10
3.462654
20
-6.347554
30
0.186924
11
3.418487
21
-6.347554
31
0.271768
0
LINE
8
ball_wire - ball_partition
62
20
10
3.418487
20
-6.347554
30
0.271768
11
3.786467
21
-6.209212
31
0.510738
0
LINE
8
ball_wire - ball_partition
62
20
10
3.418487
20
-6.347554
30
0.271768
11
3.352838
21
-6.347554
31
0.352838
0
LINE
8
ball_wire - ball_partition
62
20
10
3.352838
20
-6.347554
30
0.352838
11
3.663093
21
-6.209212
31
0.663093
0
LINE
8
ball_wire - ball_partition
62
20
10
3.352838
20
-6.347554
30
0.352838
11
3.279031
21
-6.347554
31
0.413680
0
LINE
8
ball_wire - ball_partition
62
20
10
3.279031
20
-6.347554
30
0.413680
11
3.524386
21
-6.209212
31
0.777434
0
LINE
8
ball_wire - ball_partition
62
20
10
3.279031
20
-6.347554
30
0.413680
11
3.194970
21
-6.347554
31
0.459321
0
LINE
8
ball_wire - ball_partition
62
20
10
3.194970
20
-6.347554
30
0.459321
11
3.366410
21
-6.209212
31
0.863208
0
LINE
8
ball_wire - ball_partition
62
20
10
3.194970
20
-6.347554
30
0.459321
11
3.103745
21
-6.347554
31
0.488084
0
LINE
8
ball_wire - ball_partition
62
20
10
3.103745
20
-6.347554
30
0.488084
11
3.194970
21
-6.209212
31
0.917262
0
LINE
8
ball_wire - ball_partition
62
20
10
3.103745
20
-6.347554
30
0.488084
11
3.000000
21
-6.347554
31
0.498988
0
LINE
8
ball_wire - ball_partition
62
20
10
3.000000
20
-6.347554
30
0.498988
11
3.000000
21
-6.209212
31
0.937755
0
LINE
8
ball_wire - ball_partition
62
20
10
3.000000
20
-6.347554
30
0.498988
11
2.904788
21
-6.347554
31
0.489820
0
LINE
8
ball_wire - ball_partition
62
20
10
2.904788
20
-6.347554
30
0.489820
11
2.821068
21
-6.209212
31
0.920525
0
LINE
8
ball_wire - ball_partition
62
20
10
2.904788
20
-6.347554
30
0.489820
11
2.813076
21
-6.347554
31
0.462654
0
LINE
8
ball_wire - ball_partition
62
20
10
2.813076
20
-6.347554
30
0.462654
11
2.648711
21
-6.209212
31
0.869471
0
LINE
8
ball_wire - ball_partition
62
20
10
2.813076
20
-6.347554
30
0.462654
11
2.728232
21
-6.347554
31
0.418487
0
LINE
8
ball_wire - ball_partition
62
20
10
2.728232
20
-6.347554
30
0.418487
11
2.489262
21
-6.209212
31
0.786467
0
LINE
8
ball_wire - ball_partition
62
20
10
2.728232
20
-6.347554
30
0.418487
11
2.647162
21
-6.347554
31
0.352838
0
LINE
8
ball_wire - ball_partition
62
20
10
2.647162
20
-6.347554
30
0.352838
11
2.336907
21
-6.209212
31
0.663093
0
LINE
8
ball_wire - ball_partition
62
20
10
2.647162
20
-6.347554
30
0.352838
11
2.586320
21
-6.347554
31
0.279031
0
LINE
8
ball_wire - ball_partition
62
20
10
2.586320
20
-6.347554
30
0.279031
11
2.222566
21
-6.209212
31
0.524386
0
LINE
8
ball_wire - ball_partition
62
20
10
2.586320
20
-6.347554
30
0.279031
11
2.540679
21
-6.347554
31
0.194970
0
LINE
8
ball_wire - ball_partition
62
20
10
2.540679
20
-6.347554
30
0.194970
11
2.136792
21
-6.209212
31
0.366410
0
LINE
8
ball_wire - ball_partition
62
20
10
2.540679
20
-6.347554
30
0.194970
11
2.511916
21
-6.347554
31
0.103745
0
LINE
8
ball_wire - ball_partition
62
20
10
2.511916
20
-6.347554
30
0.103745
11
2.082737
21
-6.209212
31
0.194970
0
LINE
8
ball_wire - ball_partition
62
20
10
2.511916
20
-6.347554
30
0.103745
11
2.501012
21
-6.347554
31
-0.000000
0
LINE
8
ball_wire - ball_partition
62
20
10
2.501012
20
-6.347554
30
-0.000000
11
2.062245
21
-6.209212
31
-0.000000
0
LINE
8
ball_wire - ball_partition
62
20
10
2.501012
20
-6.347554
30
-0.000000
11
2.510180
21
-6.347554
31
-0.095211
0
LINE
8
ball_wire - ball_partition
62
20
10
2.510180
20
-6.347554
30
-0.095211
11
2.079474
21
-6.209212
31
-0.178932
0
LINE
8
ball_wire - ball_partition
62
20
10
2.510180
20
-6.347554
30
-0.095211
11
2.537346
21
-6.347554
31
-0.186924
0
LINE
8
ball_wire - ball_partition
62
20
10
2.537346
20
-6.347554
30
-0.186924
11
2.130529
21
-6.209212
31
-0.351289
0
LINE
8
ball_wire - ball_partition
62
20
10
2.537346
20
-6.347554
30
-0.186924
11
2.581513
21
-6.347554
31
-0.271768
0
LINE
8
ball_wire - ball_partition
62
20
10
2.581513
20
-6.347554
30
-0.271768
11
2.213533
21
-6.209212
31
-0.510738
0
LINE
8
ball_wire - ball_partition
62
20
10
2.581513
20
-6.347554
30
-0.271768
11
2.647162
21
-6.347554
31
-0.352838
0
LINE
8
ball_wire - ball_partition
62
20
10
2.647162
20
-6.347554
30
-0.352838
11
2.336907
21
-6.209212
31
-0.663093
0
LINE
8
ball_wire - ball_partition
62
20
10
2.647162
20
-6.347554
30
-0.352838
11
2.720969
21
-6.347554
31
-0.413680
0
LINE
8
ball_wire - ball_partition
62
20
10
2.720969
20
-6.347554
30
-0.413680
11
2.475614
21
-6.209212
31
-0.777434
0
LINE
8
ball_wire - ball_partition
62
20
10
2.720969
20
-6.347554
30
-0.413680
11
2.805030
21
-6.347554
31
-0.459321
0
LINE
8
ball_wire - ball_partition
62
20
10
2.805030
20
-6.347554
30
-0.459321
11
2.633590
21
-6.209212
31
-0.863208
0
LINE
8
ball_wire - ball_partition
62
20
10
2.805030
20
-6.347554
30
-0.459321
11
2.896255
21
-6.347554
31
-0.488084
0
LINE
8
ball_wire - ball_partition
62
20
10
2.896255
20
-6.347554
30
-0.488084
11
2.805030
21
-6.209212
31
-0.917262
0
LINE
8
ball_wire - ball_partition
62
20
10
2.896255
20
-6.347554
30
-0.488084
11
3.000000
21
-6.347554
31
-0.498988
0
LINE
8
ball_wire - ball_partition
62
20
10
3.000000
20
-6.347554
30
-0.498988
11
3.000000
21
-6.209212
31
-0.937755
0
LINE
8
ball_wire - ball_partition
62
20
10
3.000000
20
-6.347554
30
-0.498988
11
3.095211
21
-6.347554
31
-0.489820
0
LINE
8
ball_wire - ball_partition
62
20
10
3.095211
20
-6.347554
30
-0.489820
11
3.178932
21
-6.209212
31
-0.920525
0
LINE
8
ball_wire - ball_partition
62
20
10
3.095211
20
-6.347554
30
-0.489820
11
3.186924
21
-6.347554
31
-0.462654
0
LINE
8
ball_wire - ball_partition
62
20
10
3.186924
20
-6.347554
30
-0.462654
11
3.351289
21
-6.209212
31
-0.869471
0
LINE
8
ball_wire - ball_partition
62
20
10
3.186924
20
-6.347554
30
-0.462654
11
3.271768
21
-6.347554
31
-0.418487
0
LINE
8
ball_wire - ball_partition
62
20
10
3.271768
20
-6.347554
30
-0.418487
11
3.510738
21
-6.209212
31
-0.786467
0
LINE
8
ball_wire - ball_partition
62
20
10
3.271768
20
-6.347554
30
-0.418487
11
3.352838
21
-6.347554
31
-0.352838
0
LINE
8
ball_wire - ball_partition
62
20
10
3.352838
20
-6.347554
30
-0.352838
11
3.663093
21
-6.209212
31
-0.663093
0
LINE
8
ball_wire - ball_partition
62
20
10
3.352838
20
-6.347554
30
-0.352838
11
3.413680
21
-6.347554
31
-0.279030
0
LINE
8
ball_wire - ball_partition
62
20
10
3.413680
20
-6.347554
30
-0.279030
11
3.777434
21
-6.209212
31
-0.524386
0
LINE
8
ball_wire - ball_partition
62
20
10
3.413680
20
-6.347554
30
-0.279030
11
3.459321
21
-6.347554
31
-0.194970
0
LINE
8
ball_wire - ball_partition
62
20
10
3.459321
20
-6.347554
30
-0.194970
11
3.863208
21
-6.209212
31
-0.366410
0
LINE
8
ball_wire - ball_partition
62
20
10
3.459321
20
-6.347554
30
-0.194970
11
3.488084
21
-6.347554
31
-0.103745
0
LINE
8
ball_wire - ball_partition
62
20
10
3.488084
20
-6.347554
30
-0.103745
11
3.917263
21
-6.209212
31
-0.194970
0
LINE
8
ball_wire - ball_partition
62
20
10
3.488084
20
-6.347554
30
-0.103745
11
3.498988
21
-6.347554
31
0.000000
0
LINE
8
ball_wire - ball_partition
62
20
10
3.937755
20
-6.209212
30
0.000000
11
4.342063
21
-5.989690
31
0.000000
0
LINE
8
ball_wire - ball_partition
62
20
10
3.937755
20
-6.209212
30
0.000000
11
3.920526
21
-6.209212
31
0.178932
0
LINE
8
ball_wire - ball_partition
62
20
10
3.920526
20
-6.209212
30
0.178932
11
4.317406
21
-5.989690
31
0.256078
0
LINE
8
ball_wire - ball_partition
62
20
10
3.920526
20
-6.209212
30
0.178932
11
3.869471
21
-6.209212
31
0.351289
0
LINE
8
ball_wire - ball_partition
62
20
10
3.869471
20
-6.209212
30
0.351289
11
4.244339
21
-5.989690
31
0.502746
0
LINE
8
ball_wire - ball_partition
62
20
10
3.869471
20
-6.209212
30
0.351289
11
3.786467
21
-6.209212
31
0.510738
0
LINE
8
ball_wire - ball_partition
62
20
10
3.786467
20
-6.209212
30
0.510738
11
4.125549
21
-5.989690
31
0.730940
0
LINE
8
ball_wire - ball_partition
62
20
10
3.786467
20
-6.209212
30
0.510738
11
3.663093
21
-6.209212
31
0.663093
0
LINE
8
ball_wire - ball_partition
62
20
10
3.663093
20
-6.209212
30
0.663093
11
3.948982
21
-5.989690
31
0.948982
0
LINE
8
ball_wire - ball_partition
62
20
10
3.663093
20
-6.209212
30
0.663093
11
3.524386
21
-6.209212
31
0.777434
0
LINE
8
ball_wire - ball_partition
62
20
10
3.524386
20
-6.209212
30
0.777434
11
3.750472
21
-5.989690
31
1.112621
0
LINE
8
ball_wire - ball_partition
62
20
10
3.524386
20
-6.209212
30
0.777434
11
3.366410
21
-6.209212
31
0.863208
0
LINE
8
ball_wire - ball_partition
62
20
10
3.366410
20
-6.209212
30
0.863208
11
3.524386
21
-5.989690
31
1.235376
0
LINE
8
ball_wire - ball_partition
62
20
10
3.366410
20
-6.209212
30
0.863208
11
3.194970
21
-6.209212
31
0.917262
0
LINE
8
ball_wire - ball_partition
62
20
10
3.194970
20
-6.209212
30
0.917262
11
3.279031
21
-5.989690
31
1.312736
0
LINE
8
ball_wire - ball_partition
62
20
10
3.194970
20
-6.209212
30
0.917262
11
3.000000
21
-6.209212
31
0.937755
0
LINE
8
ball_wire - ball_partition
62
20
10
3.000000
20
-6.209212
30
0.937755
11
3.000000
21
-5.989690
31
1.342063
0
LINE
8
ball_wire - ball_partition
62
20
10
3.000000
20
-6.209212
30
0.937755
11
2.821068
21
-6.209212
31
0.920525
0
LINE
8
ball_wire - ball_partition
62
20
10
2.821068
20
-6.209212
30
0.920525
11
2.743922
21
-5.989690
31
1.317406
0
LINE
8
ball_wire - ball_partition
62
20
10
2.821068
20
-6.209212
30
0.920525
11
2.648711
21
-6.209212
31
0.869471
0
LINE
8
ball_wire - ball_partition
62
20
10
2.648711
20
-6.209212
30
0.869471
11
2.497254
21
-5.989690
31
1.244339
0
LINE
8
ball_wire - ball_partition
62
20
10
2.648711
20
-6.209212
30
0.869471
11
2.489262
21
-6.209212
31
0.786467
0
LINE
8
ball_wire - ball_partition
62
20
10
2.489262
20
-6.209212
30
0.786467
11
2.269060
21
-5.989690
31
1.125549
0
LINE
8
ball_wire - ball_partition
62
20
10
2.489262
20
-6.209212
30
0.786467
11
2.336907
21
-6.209212
31
0.663093
0
LINE
8
ball_wire - ball_partition
62
20
10
2.336907
20
-6.209212
30
0.663093
11
2.051018
21
-5.989690
31
0.948982
0
LINE
8
ball_wire - ball_partition
62
20
10
2.336907
20
-6.209212
30
0.663093
11
2.222566
21
-6.209212
31
0.524386
0
LINE
8
ball_wire - ball_partition
62
20
10
2.222566
20
-6.209212
30
0.524386
11
1.887379
21
-5.989690
31
0.750472
0
LINE
8
ball_wire - ball_partition
62
20
10
2.222566
20
-6.209212
30
0.524386
11
2.136792
21
-6.209212
31
0.366410
0
LINE
8
ball_wire - ball_partition
62
20
10
2.136792
20
-6.209212
30
0.366410
11
1.764625
21
-5.989690
31
0.524386
0
LINE
8
ball_wire - ball_partition
62
20
10
2.136792
20
-6.209212
30
0.366410
11
2.082737
21
-6.209212
31
0.194970
0
LINE
8
ball_wire - ball_partition
62
20
10
2.082737
20
-6.209212
30
0.194970
11
1.687264
21
-5.989690
31
0.279030
0
LINE
8
ball_wire - ball_partition
62
20
10
2.082737
20
-6.209212
30
0.194970
11
2.062245
21
-6.209212
31
-0.000000
0
LINE
8
ball_wire - ball_partition
62
20
10
2.062245
20
-6.209212
30
-0.000000
11
1.657937
21
-5.989690
31
-0.000000
0
LINE
8
ball_wire - ball_partition
62
20
10
2.062245
20
-6.209212
30
-0.000000
11
2.079474
21
-6.209212
31
-0.178932
0
LINE
8
ball_wire - ball_partition
62
20
10
2.079474
20
-6.209212
30
-0.178932
11
1.682594
21
-5.989690
31
-0.256078
0
LINE
8
ball_wire - ball_partition
62
20
10
2.079474
20
-6.209212
30
-0.178932
11
2.130529
21
-6.209212
31
-0.351289
0
LINE
8
ball_wire - ball_partition
62
20
10
2.130529
20
-6.209212
30
-0.351289
11
1.755661
21
-5.989690
31
-0.502746
0
LINE
8
ball_wire - ball_partition
62
20
10
2.130529
20
-6.209212
30
-0.351289
11
2.213533
21
-6.209212
31
-0.510738
0
LINE
8
ball_wire - ball_partition
62
20
10
2.213533
20
-6.209212
30
-0.510738
11
1.874451
21
-5.989690
31
-0.730940
0
LINE
8
ball_wire - ball_partition
62
20
10
2.213533
20
-6.209212
30
-0.510738
11
2.336907
21
-6.209212
31
-0.663093
0
LINE
8
ball_wire - ball_partition
62
20
10
2.336907
20
-6.209212
30
-0.663093
11
2.051018
21
-5.989690
31
-0.948982
0
LINE
8
ball_wire - ball_partition
62
20
10
2.336907
20
-6.209212
30
-0.663093
11
2.475614
21
-6.209212
31
-0.777434
0
LINE
8
ball_wire - ball_partition
62
20
10
2.475614
20
-6.209212
30
-0.777434
11
2.249528
21
-5.989690
31
-1.112621
0
LINE
8
ball_wire - ball_partition
62
20
10
2.475614
20
-6.209212
30
-0.777434
11
2.633590
21
-6.209212
31
-0.863208
0
LINE
8
ball_wire - ball_partition
62
20
10
2.633590
20
-6.209212
30
-0.863208
11
2.475614
21
-5.989690
31
-1.235375
0
LINE
8
ball_wire - ball_partition
62
20
10
2.633590
20
-6.209212
30
-0.863208
11
2.805030
21
-6.209212
31
-0.917262
0
LINE
8
ball_wire - ball_partition
62
20
10
2.805030
20
-6.209212
30
-0.917262
11
2.720969
21
-5.989690
31
-1.312736
0
LINE
8
ball_wire - ball_partition
62
20
10
2.805030
20
-6.209212
30
-0.917262
11
3.000000
21
-6.209212
31
-0.937755
0
LINE
8
ball_wire - ball_partition
62
20
10
3.000000
20
-6.209212
30
-0.937755
11
3.000000
21
-5.989690
31
-1.342063
0
LINE
8
ball_wire - ball_partition
62
20
10
3.000000
20
-6.209212
30
-0.937755
11
3.178932
21
-6.209212
31
-0.920525
0
LINE
8
ball_wire - ball_partition
62
20
10
3.178932
20
-6.209212
30
-0.920525
11
3.256078
21
-5.989690
31
-1.317406
0
LINE
8
ball_wire - ball_partition
62
20
10
3.178932
20
-6.209212
30
-0.920525
11
3.351289
21
-6.209212
31
-0.869471
0
LINE
8
ball_wire - ball_partition
62
20
10
3.351289
20
-6.209212
30
-0.869471
11
3.502746
21
-5.989690
31
-1.244339
0
LINE
8
ball_wire - ball_partition
62
20
10
3.351289
20
-6.209212
30
-0.869471
11
3.510738
21
-6.209212
31
-0.786467
0
LINE
8
ball_wire - ball_partition
62
20
10
3.510738
20
-6.209212
30
-0.786467
11
3.730940
21
-5.989690
31
-1.125549
0
LINE
8
ball_wire - ball_partition
62
20
10
3.510738
20
-6.209212
30
-0.786467
11
3.663093
21
-6.209212
31
-0.663093
0
LINE
8
ball_wire - ball_partition
62
20
10
3.663093
20
-6.209212
30
-0.663093
11
3.948982
21
-5.989690
31
-0.948982
0
LINE
8
ball_wire - ball_partition
62
20
10
3.663093
20
-6.209212
30
-0.663093
11
3.777434
21
-6.209212
31
-0.524386
0
LINE
8
ball_wire - ball_partition
62
20
10
3.777434
20
-6.209212
30
-0.524386
11
4.112621
21
-5.989690
31
-0.750472
0
LINE
8
ball_wire - ball_partition
62
20
10
3.777434
20
-6.209212
30
-0.524386
11
3.863208
21
-6.209212
31
-0.366410
0
LINE
8
ball_wire - ball_partition
62
20
10
3.863208
20
-6.209212
30
-0.366410
11
4.235375
21
-5.989690
31
-0.524386
0
LINE
8
ball_wire - ball_partition
62
20
10
3.863208
20
-6.209212
30
-0.366410
11
3.917263
21
-6.209212
31
-0.194970
0
LINE
8
ball_wire - ball_partition
62
20
10
3.917263
20
-6.209212
30
-0.194970
11
4.312736
21
-5.989690
31
-0.279031
0
LINE
8
ball_wire - ball_partition
62
20
10
3.917263
20
-6.209212
30
-0.194970
11
3.937755
21
-6.209212
31
0.000000
0
LINE
8
ball_wire - ball_partition
62
20
10
4.342063
20
-5.989690
30
0.000000
11
4.697056
21
-5.697056
31
0.000000
0
LINE
8
ball_wire - ball_partition
62
20
10
4.342063
20
-5.989690
30
0.000000
11
4.317406
21
-5.989690
31
0.256078
0
LINE
8
ball_wire - ball_partition
62
20
10
4.317406
20
-5.989690
30
0.256078
11
4.665877
21
-5.697056
31
0.323814
0
LINE
8
ball_wire - ball_partition
62
20
10
4.317406
20
-5.989690
30
0.256078
11
4.244339
21
-5.989690
31
0.502746
0
LINE
8
ball_wire - ball_partition
62
20
10
4.244339
20
-5.989690
30
0.502746
11
4.573483
21
-5.697056
31
0.635728
0
LINE
8
ball_wire - ball_partition
62
20
10
4.244339
20
-5.989690
30
0.502746
11
4.125549
21
-5.989690
31
0.730940
0
LINE
8
ball_wire - ball_partition
62
20
10
4.125549
20
-5.989690
30
0.730940
11
4.423271
21
-5.697056
31
0.924283
0
LINE
8
ball_wire - ball_partition
62
20
10
4.125549
20
-5.989690
30
0.730940
11
3.948982
21
-5.989690
31
0.948982
0
LINE
8
ball_wire - ball_partition
62
20
10
3.948982
20
-5.989690
30
0.948982
11
4.200000
21
-5.697056
31
1.200000
0
LINE
8
ball_wire - ball_partition
62
20
10
3.948982
20
-5.989690
30
0.948982
11
3.750472
21
-5.989690
31
1.112621
0
LINE
8
ball_wire - ball_partition
62
20
10
3.750472
20
-5.989690
30
1.112621
11
3.948982
21
-5.697056
31
1.406923
0
LINE
8
ball_wire - ball_partition
62
20
10
3.750472
20
-5.989690
30
1.112621
11
3.524386
21
-5.989690
31
1.235376
0
LINE
8
ball_wire - ball_partition
62
20
10
3.524386
20
-5.989690
30
1.235376
11
3.663093
21
-5.697056
31
1.562149
0
LINE
8
ball_wire - ball_partition
62
20
10
3.524386
20
-5.989690
30
1.235376
11
3.279031
21
-5.989690
31
1.312736
0
LINE
8
ball_wire - ball_partition
62
20
10
3.279031
20
-5.989690
30
1.312736
11
3.352838
21
-5.697056
31
1.659972
0
LINE
8
ball_wire - ball_partition
62
20
10
3.279031
20
-5.989690
30
1.312736
11
3.000000
21
-5.989690
31
1.342063
0
LINE
8
ball_wire - ball_partition
62
20
10
3.000000
20
-5.989690
30
1.342063
11
3.000000
21
-5.697056
31
1.697056
0
LINE
8
ball_wire - ball_partition
62
20
10
3.000000
20
-5.989690
30
1.342063
11
2.743922
21
-5.989690
31
1.317406
0
LINE
8
ball_wire - ball_partition
62
20
10
2.743922
20
-5.989690
30
1.317406
11
2.676186
21
-5.697056
31
1.665877
0
LINE
8
ball_wire - ball_partition
62
20
10
2.743922
20
-5.989690
30
1.317406
11
2.497254
21
-5.989690
31
1.244339
0
LINE
8
ball_wire - ball_partition
62
20
10
2.497254
20
-5.989690
30
1.244339
11
2.364272
21
-5.697056
31
1.573483
0
LINE
8
ball_wire - ball_partition
62
20
10
2.497254
20
-5.989690
30
1.244339
11
2.269060
21
-5.989690
31
1.125549
0
LINE
8
ball_wire - ball_partition
62
20
10
2.269060
20
-5.989690
30
1.125549
11
2.075717
21
-5.697056
31
1.423271
0
LINE
8
ball_wire - ball_partition
62
20
10
2.269060
20
-5.989690
30
1.125549
11
2.051018
21
-5.989690
31
0.948982
0
LINE
8
ball_wire - ball_partition
62
20
10
2.051018
20
-5.989690
30
0.948982
11
1.800000
21
-5.697056
31
1.200000
0
LINE
8
ball_wire - ball_partition
62
20
10
2.051018
20
-5.989690
30
0.948982
11
1.887379
21
-5.989690
31
0.750472
0
LINE
8
ball_wire - ball_partition
62
20
10
1.887379
20
-5.989690
30
0.750472
11
1.593076
21
-5.697056
31
0.948982
0
LINE
8
ball_wire - ball_partition
62
20
10
1.887379
20
-5.989690
30
0.750472
11
1.764625
21
-5.989690
31
0.524386
0
LINE
8
ball_wire - ball_partition
62
20
10
1.764625
20
-5.989690
30
0.524386
11
1.437852
21
-5.697056
31
0.663093
0
LINE
8
ball_wire - ball_partition
62
20
10
1.764625
20
-5.989690
30
0.524386
11
1.687264
21
-5.989690
31
0.279030
0
LINE
8
ball_wire - ball_partition
62
20
10
1.687264
20
-5.989690
30
0.279030
11
1.340028
21
-5.697056
31
0.352838
0
LINE
8
ball_wire - ball_partition
62
20
10
1.687264
20
-5.989690
30
0.279030
11
1.657937
21
-5.989690
31
-0.000000
0
LINE
8
ball_wire - ball_partition
62
20
10
1.657937
20
-5.989690
30
-0.000000
11
1.302944
21
-5.697056
31
-0.000000
0
LINE
8
ball_wire - ball_partition
62
20
10
1.657937
20
-5.989690
30
-0.000000
11
1.682594
21
-5.989690
31
-0.256078
0
LINE
8
ball_wire - ball_partition
62
20
10
1.682594
20
-5.989690
30
-0.256078
11
1.334123
21
-5.697056
31
-0.323814
0
LINE
8
ball_wire - ball_partition
62
20
10
1.682594
20
-5.989690
30
-0.256078
11
1.755661
21
-5.989690
31
-0.502746
0
LINE
8
ball_wire - ball_partition
62
20
10
1.755661
20
-5.989690
30
-0.502746
11
1.426517
21
-5.697056
31
-0.635729
0
LINE
8
ball_wire - ball_partition
62
20
10
1.755661
20
-5.989690
30
-0.502746
11
1.874451
21
-5.989690
31
-0.730940
0
LINE
8
ball_wire - ball_partition
62
20
10
1.874451
20
-5.989690
30
-0.730940
11
1.576729
21
-5.697056
31
-0.924283
0
LINE
8
ball_wire - ball_partition
62
20
10
1.874451
20
-5.989690
30
-0.730940
11
2.051018
21
-5.989690
31
-0.948982
0
LINE
8
ball_wire - ball_partition
62
20
10
2.051018
20
-5.989690
30
-0.948982
11
1.800000
21
-5.697056
31
-1.200000
0
LINE
8
ball_wire - ball_partition
62
20
10
2.051018
20
-5.989690
30
-0.948982
11
2.249528
21
-5.989690
31
-1.112621
0
LINE
8
ball_wire - ball_partition
62
20
10
2.249528
20
-5.989690
30
-1.112621
11
2.051018
21
-5.697056
31
-1.406924
0
LINE
8
ball_wire - ball_partition
62
20
10
2.249528
20
-5.989690
30
-1.112621
11
2.475614
21
-5.989690
31
-1.235375
0
LINE
8
ball_wire - ball_partition
62
20
10
2.475614
20
-5.989690
30
-1.235375
11
2.336907
21
-5.697056
31
-1.562148
0
LINE
8
ball_wire - ball_partition
62
20
10
2.475614
20
-5.989690
30
-1.235375
11
2.720969
21
-5.989690
31
-1.312736
0
LINE
8
ball_wire - ball_partition
62
20
10
2.720969
20
-5.989690
30
-1.312736
11
2.647162
21
-5.697056
31
-1.659971
0
LINE
8
ball_wire - ball_partition
62
20
10
2.720969
20
-5.989690
30
-1.312736
11
3.000000
21
-5.989690
31
-1.342063
0
LINE
8
ball_wire - ball_partition
62
20
10
3.000000
20
-5.989690
30
-1.342063
11
3.000000
21
-5.697056
31
-1.697056
0
LINE
8
ball_wire - ball_partition
62
20
10
3.000000
20
-5.989690
30
-1.342063
11
3.256078
21
-5.989690
31
-1.317406
0
LINE
8
ball_wire - ball_partition
62
20
10
3.256078
20
-5.989690
30
-1.317406
11
3.323813
21
-5.697056
31
-1.665877
0
LINE
8
ball_wire - ball_partition
62
20
10
3.256078
20
-5.989690
30
-1.317406
11
3.502746
21
-5.989690
31
-1.244339
0
LINE
8
ball_wire - ball_partition
62
20
10
3.502746
20
-5.989690
30
-1.244339
11
3.635729
21
-5.697056
31
-1.573483
0
LINE
8
ball_wire - ball_partition
62
20
10
3.502746
20
-5.989690
30
-1.244339
11
3.730940
21
-5.989690
31
-1.125549
0
LINE
8
ball_wire - ball_partition
62
20
10
3.730940
20
-5.989690
30
-1.125549
11
3.924283
21
-5.697056
31
-1.423271
0
LINE
8
ball_wire - ball_partition
62
20
10
3.730940
20
-5.989690
30
-1.125549
11
3.948982
21
-5.989690
31
-0.948982
0
LINE
8
ball_wire - ball_partition
62
20
10
3.948982
20
-5.989690
30
-0.948982
11
4.200000
21
-5.697056
31
-1.200000
0
LINE
8
ball_wire - ball_partition
62
20
10
3.948982
20
-5.989690
30
-0.948982
11
4.112621
21
-5.989690
31
-0.750472
0
LINE
8
ball_wire - ball_partition
62
20
10
4.112621
20
-5.989690
30
-0.750472
11
4.406923
21
-5.697056
31
-0.948982
0
LINE
8
ball_wire - ball_partition
62
20
10
4.112621
20
-5.989690
30
-0.750472
11
4.235375
21
-5.989690
31
-0.524386
0
LINE
8
ball_wire - ball_partition
62
20
10
4.235375
20
-5.989690
30
-0.524386
11
4.562149
21
-5.697056
31
-0.663093
0
LINE
8
ball_wire - ball_partition
62
20
10
4.235375
20
-5.989690
30
-0.524386
11
4.312736
21
-5.989690
31
-0.279031
0
LINE
8
ball_wire - ball_partition
62
20
10
4.312736
20
-5.989690
30
-0.279031
11
4.659972
21
-5.697056
31
-0.352838
0
LINE
8
ball_wire - ball_partition
62
20
10
4.312736
20
-5.989690
30
-0.279031
11
4.342063
21
-5.989690
31
0.000000
0
LINE
8
ball_wire - ball_partition
62
20
10
4.697056
20
-5.697056
30
0.000000
11
5.012810
21
-5.307134
31
0.000000
0
LINE
8
ball_wire - ball_partition
62
20
10
4.697056
20
-5.697056
30
0.000000
11
4.665877
21
-5.697056
31
0.323814
0
LINE
8
ball_wire - ball_partition
62
20
10
4.665877
20
-5.697056
30
0.323814
11
4.975829
21
-5.307134
31
0.384062
0
LINE
8
ball_wire - ball_partition
62
20
10
4.665877
20
-5.697056
30
0.323814
11
4.573483
21
-5.697056
31
0.635728
0
LINE
8
ball_wire - ball_partition
62
20
10
4.573483
20
-5.697056
30
0.635728
11
4.866244
21
-5.307134
31
0.754012
0
LINE
8
ball_wire - ball_partition
62
20
10
4.573483
20
-5.697056
30
0.635728
11
4.423271
21
-5.697056
31
0.924283
0
LINE
8
ball_wire - ball_partition
62
20
10
4.423271
20
-5.697056
30
0.924283
11
4.688084
21
-5.307134
31
1.096255
0
LINE
8
ball_wire - ball_partition
62
20
10
4.423271
20
-5.697056
30
0.924283
11
4.200000
21
-5.697056
31
1.200000
0
LINE
8
ball_wire - ball_partition
62
20
10
4.200000
20
-5.697056
30
1.200000
11
4.423271
21
-5.307134
31
1.423271
0
LINE
8
ball_wire - ball_partition
62
20
10
4.200000
20
-5.697056
30
1.200000
11
3.948982
21
-5.697056
31
1.406923
0
LINE
8
ball_wire - ball_partition
62
20
10
3.948982
20
-5.697056
30
1.406923
11
4.125549
21
-5.307134
31
1.668695
0
LINE
8
ball_wire - ball_partition
62
20
10
3.948982
20
-5.697056
30
1.406923
11
3.663093
21
-5.697056
31
1.562149
0
LINE
8
ball_wire - ball_partition
62
20
10
3.663093
20
-5.697056
30
1.562149
11
3.786467
21
-5.307134
31
1.852801
0
LINE
8
ball_wire - ball_partition
62
20
10
3.663093
20
-5.697056
30
1.562149
11
3.352838
21
-5.697056
31
1.659972
0
LINE
8
ball_wire - ball_partition
62
20
10
3.352838
20
-5.697056
30
1.659972
11
3.418487
21
-5.307134
31
1.968825
0
LINE
8
ball_wire - ball_partition
62
20
10
3.352838
20
-5.697056
30
1.659972
11
3.000000
21
-5.697056
31
1.697056
0
LINE
8
ball_wire - ball_partition
62
20
10
3.000000
20
-5.697056
30
1.697056
11
3.000000
21
-5.307134
31
2.012810
0
LINE
8
ball_wire - ball_partition
62
20
10
3.000000
20
-5.697056
30
1.697056
11
2.676186
21
-5.697056
31
1.665877
0
LINE
8
ball_wire - ball_partition
62
20
10
2.676186
20
-5.697056
30
1.665877
11
2.615938
21
-5.307134
31
1.975828
0
LINE
8
ball_wire - ball_partition
62
20
10
2.676186
20
-5.697056
30
1.665877
11
2.364272
21
-5.697056
31
1.573483
0
LINE
8
ball_wire - ball_partition
62
20
10
2.364272
20
-5.697056
30
1.573483
11
2.245988
21
-5.307134
31
1.866244
0
LINE
8
ball_wire - ball_partition
62
20
10
2.364272
20
-5.697056
30
1.573483
11
2.075717
21
-5.697056
31
1.423271
0
LINE
8
ball_wire - ball_partition
62
20
10
2.075717
20
-5.697056
30
1.423271
11
1.903745
21
-5.307134
31
1.688084
0
LINE
8
ball_wire - ball_partition
62
20
10
2.075717
20
-5.697056
30
1.423271
11
1.800000
21
-5.697056
31
1.200000
0
LINE
8
ball_wire - ball_partition
62
20
10
1.800000
20
-5.697056
30
1.200000
11
1.576729
21
-5.307134
31
1.423271
0
LINE
8
ball_wire - ball_partition
62
20
10
1.800000
20
-5.697056
30
1.200000
11
1.593076
21
-5.697056
31
0.948982
0
LINE
8
ball_wire - ball_partition
62
20
10
1.593076
20
-5.697056
30
0.948982
11
1.331305
21
-5.307134
31
1.125549
0
LINE
8
ball_wire - ball_partition
62
20
10
1.593076
20
-5.697056
30
0.948982
11
1.437852
21
-5.697056
31
0.663093
0
LINE
8
ball_wire - ball_partition
62
20
10
1.437852
20
-5.697056
30
0.663093
11
1.147199
21
-5.307134
31
0.786467
0
LINE
8
ball_wire - ball_partition
62
20
10
1.437852
20
-5.697056
30
0.663093
11
1.340028
21
-5.697056
31
0.352838
0
LINE
8
ball_wire - ball_partition
62
20
10
1.340028
20
-5.697056
30
0.352838
11
1.031175
21
-5.307134
31
0.418486
0
LINE
8
ball_wire - ball_partition
62
20
10
1.340028
20
-5.697056
30
0.352838
11
1.302944
21
-5.697056
31
-0.000000
0
LINE
8
ball_wire - ball_partition
62
20
10
1.302944
20
-5.697056
30
-0.000000
11
0.987190
21
-5.307134
31
-0.000000
0
LINE
8
ball_wire - ball_partition
62
20
10
1.302944
20
-5.697056
30
-0.000000
11
1.334123
21
-5.697056
31
-0.323814
0
LINE
8
ball_wire - ball_partition
62
20
10
1.334123
20
-5.697056
30
-0.323814
11
1.024171
21
-5.307134
31
-0.384062
0
LINE
8
ball_wire - ball_partition
62
20
10
1.334123
20
-5.697056
30
-0.323814
11
1.426517
21
-5.697056
31
-0.635729
0
LINE
8
ball_wire - ball_partition
62
20
10
1.426517
20
-5.697056
30
-0.635729
11
1.133756
21
-5.307134
31
-0.754012
0
LINE
8
ball_wire - ball_partition
62
20
10
1.426517
20
-5.697056
30
-0.635729
11
1.576729
21
-5.697056
31
-0.924283
0
LINE
8
ball_wire - ball_partition
62
20
10
1.576729
20
-5.697056
30
-0.924283
11
1.311916
21
-5.307134
31
-1.096254
0
LINE
8
ball_wire - ball_partition
62
20
10
1.576729
20
-5.697056
30
-0.924283
11
1.800000
21
-5.697056
31
-1.200000
0
LINE
8
ball_wire - ball_partition
62
20
10
1.800000
20
-5.697056
30
-1.200000
11
1.576729
21
-5.307134
31
-1.423271
0
LINE
8
ball_wire - ball_partition
62
20
10
1.800000
20
-5.697056
30
-1.200000
11
2.051018
21
-5.697056
31
-1.406924
0
LINE
8
ball_wire - ball_partition
62
20
10
2.051018
20
-5.697056
30
-1.406924
11
1.874451
21
-5.307134
31
-1.668695
0
LINE
8
ball_wire - ball_partition
62
20
10
2.051018
20
-5.697056
30
-1.406924
11
2.336907
21
-5.697056
31
-1.562148
0
LINE
8
ball_wire - ball_partition
62
20
10
2.336907
20
-5.697056
30
-1.562148
11
2.213532
21
-5.307134
31
-1.852801
0
LINE
8
ball_wire - ball_partition
62
20
10
2.336907
20
-5.697056
30
-1.562148
11
2.647162
21
-5.697056
31
-1.659971
0
LINE
8
ball_wire - ball_partition
62
20
10
2.647162
20
-5.697056
30
-1.659971
11
2.581513
21
-5.307134
31
-1.968825
0
LINE
8
ball_wire - ball_partition
62
20
10
2.647162
20
-5.697056
30
-1.659971
11
3.000000
21
-5.697056
31
-1.697056
0
LINE
8
ball_wire - ball_partition
62
20
10
3.000000
20
-5.697056
30
-1.697056
11
3.000000
21
-5.307134
31
-2.012810
0
LINE
8
ball_wire - ball_partition
62
20
10
3.000000
20
-5.697056
30
-1.697056
11
3.323813
21
-5.697056
31
-1.665877
0
LINE
8
ball_wire - ball_partition
62
20
10
3.323813
20
-5.697056
30
-1.665877
11
3.384062
21
-5.307134
31
-1.975829
0
LINE
8
ball_wire - ball_partition
62
20
10
3.323813
20
-5.697056
30
-1.665877
11
3.635729
21
-5.697056
31
-1.573483
0
LINE
8
ball_wire - ball_partition
62
20
10
3.635729
20
-5.697056
30
-1.573483
11
3.754012
21
-5.307134
31
-1.866244
0
LINE
8
ball_wire - ball_partition
62
20
10
3.635729
20
-5.697056
30
-1.573483
11
3.924283
21
-5.697056
31
-1.423271
0
LINE
8
ball_wire - ball_partition
62
20
10
3.924283
20
-5.697056
30
-1.423271
11
4.096255
21
-5.307134
31
-1.688084
0
LINE
8
ball_wire - ball_partition
62
20
10
3.924283
20
-5.697056
30
-1.423271
11
4.200000
21
-5.697056
31
-1.200000
0
LINE
8
ball_wire - ball_partition
62
20
10
4.200000
20
-5.697056
30
-1.200000
11
4.423271
21
-5.307134
31
-1.423271
0
LINE
8
ball_wire - ball_partition
62
20
10
4.200000
20
-5.697056
30
-1.200000
11
4.406923
21
-5.697056
31
-0.948982
0
LINE
8
ball_wire - ball_partition
62
20
10
4.406923
20
-5.697056
30
-0.948982
11
4.668695
21
-5.307134
31
-1.125548
0
LINE
8
ball_wire - ball_partition
62
20
10
4.406923
20
-5.697056
30
-0.948982
11
4.562149
21
-5.697056
31
-0.663093
0
LINE
8
ball_wire - ball_partition
62
20
10
4.562149
20
-5.697056
30
-0.663093
11
4.852801
21
-5.307134
31
-0.786467
0
LINE
8
ball_wire - ball_partition
62
20
10
4.562149
20
-5.697056
30
-0.663093
11
4.659972
21
-5.697056
31
-0.352838
0
LINE
8
ball_wire - ball_partition
62
20
10
4.659972
20
-5.697056
30
-0.352838
11
4.968825
21
-5.307134
31
-0.418487
0
LINE
8
ball_wire - ball_partition
62
20
10
4.659972
20
-5.697056
30
-0.352838
11
4.697056
21
-5.697056
31
0.000000
0
LINE
8
ball_wire - ball_partition
62
20
10
5.012810
20
-5.307134
30
0.000000
11
5.225242
21
-4.899056
31
0.000000
0
LINE
8
ball_wire - ball_partition
62
20
10
5.012810
20
-5.307134
30
0.000000
11
4.975829
21
-5.307134
31
0.384062
0
LINE
8
ball_wire - ball_partition
62
20
10
4.975829
20
-5.307134
30
0.384062
11
5.184358
21
-4.899056
31
0.424596
0
LINE
8
ball_wire - ball_partition
62
20
10
4.975829
20
-5.307134
30
0.384062
11
4.866244
21
-5.307134
31
0.754012
0
LINE
8
ball_wire - ball_partition
62
20
10
4.866244
20
-5.307134
30
0.754012
11
5.063208
21
-4.899056
31
0.833590
0
LINE
8
ball_wire - ball_partition
62
20
10
4.866244
20
-5.307134
30
0.754012
11
4.688084
21
-5.307134
31
1.096255
0
LINE
8
ball_wire - ball_partition
62
20
10
4.688084
20
-5.307134
30
1.096255
11
4.866244
21
-4.899056
31
1.211953
0
LINE
8
ball_wire - ball_partition
62
20
10
4.688084
20
-5.307134
30
1.096255
11
4.423271
21
-5.307134
31
1.423271
0
LINE
8
ball_wire - ball_partition
62
20
10
4.423271
20
-5.307134
30
1.423271
11
4.573483
21
-4.899056
31
1.573483
0
LINE
8
ball_wire - ball_partition
62
20
10
4.423271
20
-5.307134
30
1.423271
11
4.125549
21
-5.307134
31
1.668695
0
LINE
8
ball_wire - ball_partition
62
20
10
4.125549
20
-5.307134
30
1.668695
11
4.244339
21
-4.899056
31
1.844809
0
LINE
8
ball_wire - ball_partition
62
20
10
4.125549
20
-5.307134
30
1.668695
11
3.786467
21
-5.307134
31
1.852801
0
LINE
8
ball_wire - ball_partition
62
20
10
3.786467
20
-5.307134
30
1.852801
11
3.869471
21
-4.899056
31
2.048346
0
LINE
8
ball_wire - ball_partition
62
20
10
3.786467
20
-5.307134
30
1.852801
11
3.418487
21
-5.307134
31
1.968825
0
LINE
8
ball_wire - ball_partition
62
20
10
3.418487
20
-5.307134
30
1.968825
11
3.462654
21
-4.899056
31
2.176615
0
LINE
8
ball_wire - ball_partition
62
20
10
3.418487
20
-5.307134
30
1.968825
11
3.000000
21
-5.307134
31
2.012810
0
LINE
8
ball_wire - ball_partition
62
20
10
3.000000
20
-5.307134
30
2.012810
11
3.000000
21
-4.899056
31
2.225241
0
LINE
8
ball_wire - ball_partition
62
20
10
3.000000
20
-5.307134
30
2.012810
11
2.615938
21
-5.307134
31
1.975828
0
LINE
8
ball_wire - ball_partition
62
20
10
2.615938
20
-5.307134
30
1.975828
11
2.575404
21
-4.899056
31
2.184357
0
LINE
8
ball_wire - ball_partition
62
20
10
2.615938
20
-5.307134
30
1.975828
11
2.245988
21
-5.307134
31
1.866244
0
LINE
8
ball_wire - ball_partition
62
20
10
2.245988
20
-5.307134
30
1.866244
11
2.166410
21
-4.899056
31
2.063208
0
LINE
8
ball_wire - ball_partition
62
20
10
2.245988
20
-5.307134
30
1.866244
11
1.903745
21
-5.307134
31
1.688084
0
LINE
8
ball_wire - ball_partition
62
20
10
1.903745
20
-5.307134
30
1.688084
11
1.788047
21
-4.899056
31
1.866244
0
LINE
8
ball_wire - ball_partition
62
20
10
1.903745
20
-5.307134
30
1.688084
11
1.576729
21
-5.307134
31
1.423271
0
LINE
8
ball_wire - ball_partition
62
20
10
1.576729
20
-5.307134
30
1.423271
11
1.426517
21
-4.899056
31
1.573483
0
LINE
8
ball_wire - ball_partition
62
20
10
1.576729
20
-5.307134
30
1.423271
11
1.331305
21
-5.307134
31
1.125549
0
LINE
8
ball_wire - ball_partition
62
20
10
1.331305
20
-5.307134
30
1.125549
11
1.155191
21
-4.899056
31
1.244339
0
LINE
8
ball_wire - ball_partition
62
20
10
1.331305
20
-5.307134
30
1.125549
11
1.147199
21
-5.307134
31
0.786467
0
LINE
8
ball_wire - ball_partition
62
20
10
1.147199
20
-5.307134
30
0.786467
11
0.951655
21
-4.899056
31
0.869471
0
LINE
8
ball_wire - ball_partition
62
20
10
1.147199
20
-5.307134
30
0.786467
11
1.031175
21
-5.307134
31
0.418486
0
LINE
8
ball_wire - ball_partition
62
20
10
1.031175
20
-5.307134
30
0.418486
11
0.823385
21
-4.899056
31
0.462653
0
LINE
8
ball_wire - ball_partition
62
20
10
1.031175
20
-5.307134
30
0.418486
11
0.987190
21
-5.307134
31
-0.000000
0
LINE
8
ball_wire - ball_partition
62
20
10
0.987190
20
-5.307134
30
-0.000000
11
0.774759
21
-4.899056
31
-0.000000
0
LINE
8
ball_wire - ball_partition
62
20
10
0.987190
20
-5.307134
30
-0.000000
11
1.024171
21
-5.307134
31
-0.384062
0
LINE
8
ball_wire - ball_partition
62
20
10
1.024171
20
-5.307134
30
-0.384062
11
0.815643
21
-4.899056
31
-0.424596
0
LINE
8
ball_wire - ball_partition
62
20
10
1.024171
20
-5.307134
30
-0.384062
11
1.133756
21
-5.307134
31
-0.754012
0
LINE
8
ball_wire - ball_partition
62
20
10
1.133756
20
-5.307134
30
-0.754012
11
0.936792
21
-4.899056
31
-0.833590
0
LINE
8
ball_wire - ball_partition
62
20
10
1.133756
20
-5.307134
30
-0.754012
11
1.311916
21
-5.307134
31
-1.096254
0
LINE
8
ball_wire - ball_partition
62
20
10
1.311916
20
-5.307134
30
-1.096254
11
1.133756
21
-4.899056
31
-1.211953
0
LINE
8
ball_wire - ball_partition
62
20
10
1.311916
20
-5.307134
30
-1.096254
11
1.576729
21
-5.307134
31
-1.423271
0
LINE
8
ball_wire - ball_partition
62
20
10
1.576729
20
-5.307134
30
-1.423271
11
1.426517
21
-4.899056
31
-1.573483
0
LINE
8
ball_wire - ball_partition
62
20
10
1.576729
20
-5.307134
30
-1.423271
11
1.874451
21
-5.307134
31
-1.668695
0
LINE
8
ball_wire - ball_partition
62
20
10
1.874451
20
-5.307134
30
-1.668695
11
1.755661
21
-4.899056
31
-1.844809
0
LINE
8
ball_wire - ball_partition
62
20
10
1.874451
20
-5.307134
30
-1.668695
11
2.213532
21
-5.307134
31
-1.852801
0
LINE
8
ball_wire - ball_partition
62
20
10
2.213532
20
-5.307134
30
-1.852801
11
2.130529
21
-4.899056
31
-2.048345
0
LINE
8
ball_wire - ball_partition
62
20
10
2.213532
20
-5.307134
30
-1.852801
11
2.581513
21
-5.307134
31
-1.968825
0
LINE
8
ball_wire - ball_partition
62
20
10
2.581513
20
-5.307134
30
-1.968825
11
2.537346
21
-4.899056
31
-2.176615
0
LINE
8
ball_wire - ball_partition
62
20
10
2.581513
20
-5.307134
30
-1.968825
11
3.000000
21
-5.307134
31
-2.012810
0
LINE
8
ball_wire - ball_partition
62
20
10
3.000000
20
-5.307134
30
-2.012810
11
3.000000
21
-4.899056
31
-2.225241
0
LINE
8
ball_wire - ball_partition
62
20
10
3.000000
20
-5.307134
30
-2.012810
11
3.384062
21
-5.307134
31
-1.975829
0
LINE
8
ball_wire - ball_partition
62
20
10
3.384062
20
-5.307134
30
-1.975829
11
3.424596
21
-4.899056
31
-2.184357
0
LINE
8
ball_wire - ball_partition
62
20
10
3.384062
20
-5.307134
30
-1.975829
11
3.754012
21
-5.307134
31
-1.866244
0
LINE
8
ball_wire - ball_partition
62
20
10
3.754012
20
-5.307134
30
-1.866244
11
3.833591
21
-4.899056
31
-2.063208
0
LINE
8
ball_wire - ball_partition
62
20
10
3.754012
20
-5.307134
30
-1.866244
11
4.096255
21
-5.307134
31
-1.688084
0
LINE
8
ball_wire - ball_partition
62
20
10
4.096255
20
-5.307134
30
-1.688084
11
4.211954
21
-4.899056
31
-1.866244
0
LINE
8
ball_wire - ball_partition
62
20
10
4.096255
20
-5.307134
30
-1.688084
11
4.423271
21
-5.307134
31
-1.423271
0
LINE
8
ball_wire - ball_partition
62
20
10
4.423271
20
-5.307134
30
-1.423271
11
4.573483
21
-4.899056
31
-1.573483
0
LINE
8
ball_wire - ball_partition
62
20
10
4.423271
20
-5.307134
30
-1.423271
11
4.668695
21
-5.307134
31
-1.125548
0
LINE
8
ball_wire - ball_partition
62
20
10
4.668695
20
-5.307134
30
-1.125548
11
4.844809
21
-4.899056
31
-1.244339
0
LINE
8
ball_wire - ball_partition
62
20
10
4.668695
20
-5.307134
30
-1.125548
11
4.852801
21
-5.307134
31
-0.786467
0
LINE
8
ball_wire - ball_partition
62
20
10
4.852801
20
-5.307134
30
-0.786467
11
5.048346
21
-4.899056
31
-0.869471
0
LINE
8
ball_wire - ball_partition
62
20
10
4.852801
20
-5.307134
30
-0.786467
11
4.968825
21
-5.307134
31
-0.418487
0
LINE
8
ball_wire - ball_partition
62
20
10
4.968825
20
-5.307134
30
-0.418487
11
5.176615
21
-4.899056
31
-0.462654
0
LINE
8
ball_wire - ball_partition
62
20
10
4.968825
20
-5.307134
30
-0.418487
11
5.012810
21
-5.307134
31
0.000000
0
LINE
8
ball_wire - ball_partition
62
20
10
5.225242
20
-4.899056
30
0.000000
11
5.355906
21
-4.457942
31
0.000000
0
LINE
8
ball_wire - ball_partition
62
20
10
5.225242
20
-4.899056
30
0.000000
11
5.184358
21
-4.899056
31
0.424596
0
LINE
8
ball_wire - ball_partition
62
20
10
5.184358
20
-4.899056
30
0.424596
11
5.312621
21
-4.457942
31
0.449528
0
LINE
8
ball_wire - ball_partition
62
20
10
5.184358
20
-4.899056
30
0.424596
11
5.063208
21
-4.899056
31
0.833590
0
LINE
8
ball_wire - ball_partition
62
20
10
5.063208
20
-4.899056
30
0.833590
11
5.184358
21
-4.457942
31
0.882538
0
LINE
8
ball_wire - ball_partition
62
20
10
5.063208
20
-4.899056
30
0.833590
11
4.866244
21
-4.899056
31
1.211953
0
LINE
8
ball_wire - ball_partition
62
20
10
4.866244
20
-4.899056
30
1.211953
11
4.975829
21
-4.457942
31
1.283118
0
LINE
8
ball_wire - ball_partition
62
20
10
4.866244
20
-4.899056
30
1.211953
11
4.573483
21
-4.899056
31
1.573483
0
LINE
8
ball_wire - ball_partition
62
20
10
4.573483
20
-4.899056
30
1.573483
11
4.665877
21
-4.457942
31
1.665877
0
LINE
8
ball_wire - ball_partition
62
20
10
4.573483
20
-4.899056
30
1.573483
11
4.244339
21
-4.899056
31
1.844809
0
LINE
8
ball_wire - ball_partition
62
20
10
4.244339
20
-4.899056
30
1.844809
11
4.317406
21
-4.457942
31
1.953134
0
LINE
8
ball_wire - ball_partition
62
20
10
4.244339
20
-4.899056
30
1.844809
11
3.869471
21
-4.899056
31
2.048346
0
LINE
8
ball_wire - ball_partition
62
20
10
3.869471
20
-4.899056
30
2.048346
11
3.920526
21
-4.457942
31
2.168622
0
LINE
8
ball_wire - ball_partition
62
20
10
3.869471
20
-4.899056
30
2.048346
11
3.462654
21
-4.899056
31
2.176615
0
LINE
8
ball_wire - ball_partition
62
20
10
3.462654
20
-4.899056
30
2.176615
11
3.489820
21
-4.457942
31
2.304423
0
LINE
8
ball_wire - ball_partition
62
20
10
3.462654
20
-4.899056
30
2.176615
11
3.000000
21
-4.899056
31
2.225241
0
LINE
8
ball_wire - ball_partition
62
20
10
3.000000
20
-4.899056
30
2.225241
11
3.000000
21
-4.457942
31
2.355906
0
LINE
8
ball_wire - ball_partition
62
20
10
3.000000
20
-4.899056
30
2.225241
11
2.575404
21
-4.899056
31
2.184357
0
LINE
8
ball_wire - ball_partition
62
20
10
2.575404
20
-4.899056
30
2.184357
11
2.550472
21
-4.457942
31
2.312621
0
LINE
8
ball_wire - ball_partition
62
20
10
2.575404
20
-4.899056
30
2.184357
11
2.166410
21
-4.899056
31
2.063208
0
LINE
8
ball_wire - ball_partition
62
20
10
2.166410
20
-4.899056
30
2.063208
11
2.117462
21
-4.457942
31
2.184357
0
LINE
8
ball_wire - ball_partition
62
20
10
2.166410
20
-4.899056
30
2.063208
11
1.788047
21
-4.899056
31
1.866244
0
LINE
8
ball_wire - ball_partition
62
20
10
1.788047
20
-4.899056
30
1.866244
11
1.716882
21
-4.457942
31
1.975829
0
LINE
8
ball_wire - ball_partition
62
20
10
1.788047
20
-4.899056
30
1.866244
11
1.426517
21
-4.899056
31
1.573483
0
LINE
8
ball_wire - ball_partition
62
20
10
1.426517
20
-4.899056
30
1.573483
11
1.334123
21
-4.457942
31
1.665877
0
LINE
8
ball_wire - ball_partition
62
20
10
1.426517
20
-4.899056
30
1.573483
11
1.155191
21
-4.899056
31
1.244339
0
LINE
8
ball_wire - ball_partition
62
20
10
1.155191
20
-4.899056
30
1.244339
11
1.046866
21
-4.457942
31
1.317405
0
LINE
8
ball_wire - ball_partition
62
20
10
1.155191
20
-4.899056
30
1.244339
11
0.951655
21
-4.899056
31
0.869471
0
LINE
8
ball_wire - ball_partition
62
20
10
0.951655
20
-4.899056
30
0.869471
11
0.831378
21
-4.457942
31
0.920526
0
LINE
8
ball_wire - ball_partition
62
20
10
0.951655
20
-4.899056
30
0.869471
11
0.823385
21
-4.899056
31
0.462653
0
LINE
8
ball_wire - ball_partition
62
20
10
0.823385
20
-4.899056
30
0.462653
11
0.695577
21
-4.457942
31
0.489820
0
LINE
8
ball_wire - ball_partition
62
20
10
0.823385
20
-4.899056
30
0.462653
11
0.774759
21
-4.899056
31
-0.000000
0
LINE
8
ball_wire - ball_partition
62
20
10
0.774759
20
-4.899056
30
-0.000000
11
0.644094
21
-4.457942
31
-0.000000
0
LINE
8
ball_wire - ball_partition
62
20
10
0.774759
20
-4.899056
30
-0.000000
11
0.815643
21
-4.899056
31
-0.424596
0
LINE
8
ball_wire - ball_partition
62
20
10
0.815643
20
-4.899056
30
-0.424596
11
0.687379
21
-4.457942
31
-0.449528
0
LINE
8
ball_wire - ball_partition
62
20
10
0.815643
20
-4.899056
30
-0.424596
11
0.936792
21
-4.899056
31
-0.833590
0
LINE
8
ball_wire - ball_partition
62
20
10
0.936792
20
-4.899056
30
-0.833590
11
0.815643
21
-4.457942
31
-0.882538
0
LINE
8
ball_wire - ball_partition
62
20
10
0.936792
20
-4.899056
30
-0.833590
11
1.133756
21
-4.899056
31
-1.211953
0
LINE
8
ball_wire - ball_partition
62
20
10
1.133756
20
-4.899056
30
-1.211953
11
1.024171
21
-4.457942
31
-1.283118
0
LINE
8
ball_wire - ball_partition
62
20
10
1.133756
20
-4.899056
30
-1.211953
11
1.426517
21
-4.899056
31
-1.573483
0
LINE
8
ball_wire - ball_partition
62
20
10
1.426517
20
-4.899056
30
-1.573483
11
1.334123
21
-4.457942
31
-1.665877
0
LINE
8
ball_wire - ball_partition
62
20
10
1.426517
20
-4.899056
30
-1.573483
11
1.755661
21
-4.899056
31
-1.844809
0
LINE
8
ball_wire - ball_partition
62
20
10
1.755661
20
-4.899056
30
-1.844809
11
1.682594
21
-4.457942
31
-1.953134
0
LINE
8
ball_wire - ball_partition
62
20
10
1.755661
20
-4.899056
30
-1.844809
11
2.130529
21
-4.899056
31
-2.048345
0
LINE
8
ball_wire - ball_partition
62
20
10
2.130529
20
-4.899056
30
-2.048345
11
2.079474
21
-4.457942
31
-2.168622
0
LINE
8
ball_wire - ball_partition
62
20
10
2.130529
20
-4.899056
30
-2.048345
11
2.537346
21
-4.899056
31
-2.176615
0
LINE
8
ball_wire - ball_partition
62
20
10
2.537346
20
-4.899056
30
-2.176615
11
2.510179
21
-4.457942
31
-2.304423
0
LINE
8
ball_wire - ball_partition
62
20
10
2.537346
20
-4.899056
30
-2.176615
11
3.000000
21
-4.899056
31
-2.225241
0
LINE
8
ball_wire - ball_partition
62
20
10
3.000000
20
-4.899056
30
-2.225241
11
3.000000
21
-4.457942
31
-2.355906
0
LINE
8
ball_wire - ball_partition
62
20
10
3.000000
20
-4.899056
30
-2.225241
11
3.424596
21
-4.899056
31
-2.184357
0
LINE
8
ball_wire - ball_partition
62
20
10
3.424596
20
-4.899056
30
-2.184357
11
3.449528
21
-4.457942
31
-2.312621
0
LINE
8
ball_wire - ball_partition
62
20
10
3.424596
20
-4.899056
30
-2.184357
11
3.833591
21
-4.899056
31
-2.063208
0
LINE
8
ball_wire - ball_partition
62
20
10
3.833591
20
-4.899056
30
-2.063208
11
3.882538
21
-4.457942
31
-2.184357
0
LINE
8
ball_wire - ball_partition
62
20
10
3.833591
20
-4.899056
30
-2.063208
11
4.211954
21
-4.899056
31
-1.866244
0
LINE
8
ball_wire - ball_partition
62
20
10
4.211954
20
-4.899056
30
-1.866244
11
4.283118
21
-4.457942
31
-1.975828
0
LINE
8
ball_wire - ball_partition
62
20
10
4.211954
20
-4.899056
30
-1.866244
11
4.573483
21
-4.899056
31
-1.573483
0
LINE
8
ball_wire - ball_partition
62
20
10
4.573483
20
-4.899056
30
-1.573483
11
4.665876
21
-4.457942
31
-1.665877
0
LINE
8
ball_wire - ball_partition
62
20
10
4.573483
20
-4.899056
30
-1.573483
11
4.844809
21
-4.899056
31
-1.244339
0
LINE
8
ball_wire - ball_partition
62
20
10
4.844809
20
-4.899056
30
-1.244339
11
4.953135
21
-4.457942
31
-1.317405
0
LINE
8
ball_wire - ball_partition
62
20
10
4.844809
20
-4.899056
30
-1.244339
11
5.048346
21
-4.899056
31
-0.869471
0
LINE
8
ball_wire - ball_partition
62
20
10
5.048346
20
-4.899056
30
-0.869471
11
5.168622
21
-4.457942
31
-0.920525
0
LINE
8
ball_wire - ball_partition
62
20
10
5.048346
20
-4.899056
30
-0.869471
11
5.176615
21
-4.899056
31
-0.462654
0
LINE
8
ball_wire - ball_partition
62
20
10
5.176615
20
-4.899056
30
-0.462654
11
5.304423
21
-4.457942
31
-0.489820
0
LINE
8
ball_wire - ball_partition
62
20
10
5.176615
20
-4.899056
30
-0.462654
11
5.225242
21
-4.899056
31
0.000000
0
LINE
8
ball_wire - ball_partition
62
20
10
5.355906
20
-4.457942
30
0.000000
11
5.400000
21
-4.000000
31
0.000000
0
LINE
8
ball_wire - ball_partition
62
20
10
5.355906
20
-4.457942
30
0.000000
11
5.312621
21
-4.457942
31
0.449528
0
LINE
8
ball_wire - ball_partition
62
20
10
5.312621
20
-4.457942
30
0.449528
11
5.355906
21
-4.000000
31
0.457942
0
LINE
8
ball_wire - ball_partition
62
20
10
5.312621
20
-4.457942
30
0.449528
11
5.184358
21
-4.457942
31
0.882538
0
LINE
8
ball_wire - ball_partition
62
20
10
5.184358
20
-4.457942
30
0.882538
11
5.225242
21
-4.000000
31
0.899056
0
LINE
8
ball_wire - ball_partition
62
20
10
5.184358
20
-4.457942
30
0.882538
11
4.975829
21
-4.457942
31
1.283118
0
LINE
8
ball_wire - ball_partition
62
20
10
4.975829
20
-4.457942
30
1.283118
11
5.012810
21
-4.000000
31
1.307134
0
LINE
8
ball_wire - ball_partition
62
20
10
4.975829
20
-4.457942
30
1.283118
11
4.665877
21
-4.457942
31
1.665877
0
LINE
8
ball_wire - ball_partition
62
20
10
4.665877
20
-4.457942
30
1.665877
11
4.697056
21
-4.000000
31
1.697056
0
LINE
8
ball_wire - ball_partition
62
20
10
4.665877
20
-4.457942
30
1.665877
11
4.317406
21
-4.457942
31
1.953134
0
LINE
8
ball_wire - ball_partition
62
20
10
4.317406
20
-4.457942
30
1.953134
11
4.342063
21
-4.000000
31
1.989690
0
LINE
8
ball_wire - ball_partition
62
20
10
4.317406
20
-4.457942
30
1.953134
11
3.920526
21
-4.457942
31
2.168622
0
LINE
8
ball_wire - ball_partition
62
20
10
3.920526
20
-4.457942
30
2.168622
11
3.937755
21
-4.000000
31
2.209212
0
LINE
8
ball_wire - ball_partition
62
20
10
3.920526
20
-4.457942
30
2.168622
11
3.489820
21
-4.457942
31
2.304423
0
LINE
8
ball_wire - ball_partition
62
20
10
3.489820
20
-4.457942
30
2.304423
11
3.498988
21
-4.000000
31
2.347554
0
LINE
8
ball_wire - ball_partition
62
20
10
3.489820
20
-4.457942
30
2.304423
11
3.000000
21
-4.457942
31
2.355906
0
LINE
8
ball_wire - ball_partition
62
20
10
3.000000
20
-4.457942
30
2.355906
11
3.000000
21
-4.000000
31
2.400000
0
LINE
8
ball_wire - ball_partition
62
20
10
3.000000
20
-4.457942
30
2.355906
11
2.550472
21
-4.457942
31
2.312621
0
LINE
8
ball_wire - ball_partition
62
20
10
2.550472
20
-4.457942
30
2.312621
11
2.542058
21
-4.000000
31
2.355905
0
LINE
8
ball_wire - ball_partition
62
20
10
2.550472
20
-4.457942
30
2.312621
11
2.117462
21
-4.457942
31
2.184357
0
LINE
8
ball_wire - ball_partition
62
20
10
2.117462
20
-4.457942
30
2.184357
11
2.100944
21
-4.000000
31
2.225241
0
LINE
8
ball_wire - ball_partition
62
20
10
2.117462
20
-4.457942
30
2.184357
11
1.716882
21
-4.457942
31
1.975829
0
LINE
8
ball_wire - ball_partition
62
20
10
1.716882
20
-4.457942
30
1.975829
11
1.692866
21
-4.000000
31
2.012810
0
LINE
8
ball_wire - ball_partition
62
20
10
1.716882
20
-4.457942
30
1.975829
11
1.334123
21
-4.457942
31
1.665877
0
LINE
8
ball_wire - ball_partition
62
20
10
1.334123
20
-4.457942
30
1.665877
11
1.302944
21
-4.000000
31
1.697056
0
LINE
8
ball_wire - ball_partition
62
20
10
1.334123
20
-4.457942
30
1.665877
11
1.046866
21
-4.457942
31
1.317405
0
LINE
8
ball_wire - ball_partition
62
20
10
1.046866
20
-4.457942
30
1.317405
11
1.010310
21
-4.000000
31
1.342063
0
LINE
8
ball_wire - ball_partition
62
20
10
1.046866
20
-4.457942
30
1.317405
11
0.831378
21
-4.457942
31
0.920526
0
LINE
8
ball_wire - ball_partition
62
20
10
0.831378
20
-4.457942
30
0.920526
11
0.790788
21
-4.000000
31
0.937755
0
LINE
8
ball_wire - ball_partition
62
20
10
0.831378
20
-4.457942
30
0.920526
11
0.695577
21
-4.457942
31
0.489820
0
LINE
8
ball_wire - ball_partition
62
20
10
0.695577
20
-4.457942
30
0.489820
11
0.652446
21
-4.000000
31
0.498988
0
LINE
8
ball_wire - ball_partition
62
20
10
0.695577
20
-4.457942
30
0.489820
11
0.644094
21
-4.457942
31
-0.000000
0
LINE
8
ball_wire - ball_partition
62
20
10
0.644094
20
-4.457942
30
-0.000000
11
0.600000
21
-4.000000
31
-0.000000
0
LINE
8
ball_wire - ball_partition
62
20
10
0.644094
20
-4.457942
30
-0.000000
11
0.687379
21
-4.457942
31
-0.449528
0
LINE
8
ball_wire - ball_partition
62
20
10
0.687379
20
-4.457942
30
-0.449528
11
0.644094
21
-4.000000
31
-0.457942
0
LINE
8
ball_wire - ball_partition
62
20
10
0.687379
20
-4.457942
30
-0.449528
11
0.815643
21
-4.457942
31
-0.882538
0
LINE
8
ball_wire - ball_partition
62
20
10
0.815643
20
-4.457942
30
-0.882538
11
0.774759
21
-4.000000
31
-0.899056
0
LINE
8
ball_wire - ball_partition
62
20
10
0.815643
20
-4.457942
30
-0.882538
11
1.024171
21
-4.457942
31
-1.283118
0
LINE
8
ball_wire - ball_partition
62
20
10
1.024171
20
-4.457942
30
-1.283118
11
0.987190
21
-4.000000
31
-1.307134
0
LINE
8
ball_wire - ball_partition
62
20
10
1.024171
20
-4.457942
30
-1.283118
11
1.334123
21
-4.457942
31
-1.665877
0
LINE
8
ball_wire - ball_partition
62
20
10
1.334123
20
-4.457942
30
-1.665877
11
1.302944
21
-4.000000
31
-1.697056
0
LINE
8
ball_wire - ball_partition
62
20
10
1.334123
20
-4.457942
30
-1.665877
11
1.682594
21
-4.457942
31
-1.953134
0
LINE
8
ball_wire - ball_partition
62
20
10
1.682594
20
-4.457942
30
-1.953134
11
1.657937
21
-4.000000
31
-1.989690
0
LINE
8
ball_wire - ball_partition
62
20
10
1.682594
20
-4.457942
30
-1.953134
11
2.079474
21
-4.457942
31
-2.168622
0
LINE
8
ball_wire - ball_partition
62
20
10
2.079474
20
-4.457942
30
-2.168622
11
2.062245
21
-4.000000
31
-2.209212
0
LINE
8
ball_wire - ball_partition
62
20
10
2.079474
20
-4.457942
30
-2.168622
11
2.510179
21
-4.457942
31
-2.304423
0
LINE
8
ball_wire - ball_partition
62
20
10
2.510179
20
-4.457942
30
-2.304423
11
2.501011
21
-4.000000
31
-2.347554
0
LINE
8
ball_wire - ball_partition
62
20
10
2.510179
20
-4.457942
30
-2.304423
11
3.000000
21
-4.457942
31
-2.355906
0
LINE
8
ball_wire - ball_partition
62
20
10
3.000000
20
-4.457942
30
-2.355906
11
3.000000
21
-4.000000
31
-2.400000
0
LINE
8
ball_wire - ball_partition
62
20
10
3.000000
20
-4.457942
30
-2.355906
11
3.449528
21
-4.457942
31
-2.312621
0
LINE
8
ball_wire - ball_partition
62
20
10
3.449528
20
-4.457942
30
-2.312621
11
3.457941
21
-4.000000
31
-2.355906
0
LINE
8
ball_wire - ball_partition
62
20
10
3.449528
20
-4.457942
30
-2.312621
11
3.882538
21
-4.457942
31
-2.184357
0
LINE
8
ball_wire - ball_partition
62
20
10
3.882538
20
-4.457942
30
-2.184357
11
3.899056
21
-4.000000
31
-2.225241
0
LINE
8
ball_wire - ball_partition
62
20
10
3.882538
20
-4.457942
30
-2.184357
11
4.283118
21
-4.457942
31
-1.975828
0
LINE
8
ball_wire - ball_partition
62
20
10
4.283118
20
-4.457942
30
-1.975828
11
4.307134
21
-4.000000
31
-2.012809
0
LINE
8
ball_wire - ball_partition
62
20
10
4.283118
20
-4.457942
30
-1.975828
11
4.665876
21
-4.457942
31
-1.665877
0
LINE
8
ball_wire - ball_partition
62
20
10
4.665876
20
-4.457942
30
-1.665877
11
4.697056
21
-4.000000
31
-1.697057
0
LINE
8
ball_wire - ball_partition
62
20
10
4.665876
20
-4.457942
30
-1.665877
11
4.953135
21
-4.457942
31
-1.317405
0
LINE
8
ball_wire - ball_partition
62
20
10
4.953135
20
-4.457942
30
-1.317405
11
4.989690
21
-4.000000
31
-1.342063
0
LINE
8
ball_wire - ball_partition
62
20
10
4.953135
20
-4.457942
30
-1.317405
11
5.168622
21
-4.457942
31
-0.920525
0
LINE
8
ball_wire - ball_partition
62
20
10
5.168622
20
-4.457942
30
-0.920525
11
5.209212
21
-4.000000
31
-0.937755
0
LINE
8
ball_wire - ball_partition
62
20
10
5.168622
20
-4.457942
30
-0.920525
11
5.304423
21
-4.457942
31
-0.489820
0
LINE
8
ball_wire - ball_partition
62
20
10
5.304423
20
-4.457942
30
-0.489820
11
5.347554
21
-4.000000
31
-0.498988
0
LINE
8
ball_wire - ball_partition
62
20
10
5.304423
20
-4.457942
30
-0.489820
11
5.355906
21
-4.457942
31
0.000000
0
LINE
8
ball_wire - ball_partition
62
20
10
5.400000
20
-4.000000
30
0.000000
11
5.355906
21
-3.542058
31
0.000000
0
LINE
8
ball_wire - ball_partition
62
20
10
5.400000
20
-4.000000
30
0.000000
11
5.355906
21
-4.000000
31
0.457942
0
LINE
8
ball_wire - ball_partition
62
20
10
5.355906
20
-4.000000
30
0.457942
11
5.312621
21
-3.542058
31
0.449528
0
LINE
8
ball_wire - ball_partition
62
20
10
5.355906
20
-4.000000
30
0.457942
11
5.225242
21
-4.000000
31
0.899056
0
LINE
8
ball_wire - ball_partition
62
20
10
5.225242
20
-4.000000
30
0.899056
11
5.184358
21
-3.542058
31
0.882538
0
LINE
8
ball_wire - ball_partition
62
20
10
5.225242
20
-4.000000
30
0.899056
11
5.012810
21
-4.000000
31
1.307134
0
LINE
8
ball_wire - ball_partition
62
20
10
5.012810
20
-4.000000
30
1.307134
11
4.975829
21
-3.542058
31
1.283118
0
LINE
8
ball_wire - ball_partition
62
20
10
5.012810
20
-4.000000
30
1.307134
11
4.697056
21
-4.000000
31
1.697056
0
LINE
8
ball_wire - ball_partition
62
20
10
4.697056
20
-4.000000
30
1.697056
11
4.665877
21
-3.542058
31
1.665877
0
LINE
8
ball_wire - ball_partition
62
20
10
4.697056
20
-4.000000
30
1.697056
11
4.342063
21
-4.000000
31
1.989690
0
LINE
8
ball_wire - ball_partition
62
20
10
4.342063
20
-4.000000
30
1.989690
11
4.317406
21
-3.542058
31
1.953134
0
LINE
8
ball_wire - ball_partition
62
20
10
4.342063
20
-4.000000
30
1.989690
11
3.937755
21
-4.000000
31
2.209212
0
LINE
8
ball_wire - ball_partition
62
20
10
3.937755
20
-4.000000
30
2.209212
11
3.920526
21
-3.542058
31
2.168622
0
LINE
8
ball_wire - ball_partition
62
20
10
3.937755
20
-4.000000
30
2.209212
11
3.498988
21
-4.000000
31
2.347554
0
LINE
8
ball_wire - ball_partition
62
20
10
3.498988
20
-4.000000
30
2.347554
11
3.489820
21
-3.542058
31
2.304423
0
LINE
8
ball_wire - ball_partition
62
20
10
3.498988
20
-4.000000
30
2.347554
11
3.000000
21
-4.000000
31
2.400000
0
LINE
8
ball_wire - ball_partition
62
20
10
3.000000
20
-4.000000
30
2.400000
11
3.000000
21
-3.542058
31
2.355906
0
LINE
8
ball_wire - ball_partition
62
20
10
3.000000
20
-4.000000
30
2.400000
11
2.542058
21
-4.000000
31
2.355905
0
LINE
8
ball_wire - ball_partition
62
20
10
2.542058
20
-4.000000
30
2.355905
11
2.550472
21
-3.542058
31
2.312621
0
LINE
8
ball_wire - ball_partition
62
20
10
2.542058
20
-4.000000
30
2.355905
11
2.100944
21
-4.000000
31
2.225241
0
LINE
8
ball_wire - ball_partition
62
20
10
2.100944
20
-4.000000
30
2.225241
11
2.117462
21
-3.542058
31
2.184357
0
LINE
8
ball_wire - ball_partition
62
20
10
2.100944
20
-4.000000
30
2.225241
11
1.692866
21
-4.000000
31
2.012810
0
LINE
8
ball_wire - ball_partition
62
20
10
1.692866
20
-4.000000
30
2.012810
11
1.716882
21
-3.542058
31
1.975829
0
LINE
8
ball_wire - ball_partition
62
20
10
1.692866
20
-4.000000
30
2.012810
11
1.302944
21
-4.000000
31
1.697056
0
LINE
8
ball_wire - ball_partition
62
20
10
1.302944
20
-4.000000
30
1.697056
11
1.334123
21
-3.542058
31
1.665877
0
LINE
8
ball_wire - ball_partition
62
20
10
1.302944
20
-4.000000
30
1.697056
11
1.010310
21
-4.000000
31
1.342063
0
LINE
8
ball_wire - ball_partition
62
20
10
1.010310
20
-4.000000
30
1.342063
11
1.046866
21
-3.542058
31
1.317405
0
LINE
8
ball_wire - ball_partition
62
20
10
1.010310
20
-4.000000
30
1.342063
11
0.790788
21
-4.000000
31
0.937755
0
LINE
8
ball_wire - ball_partition
62
20
10
0.790788
20
-4.000000
30
0.937755
11
0.831378
21
-3.542058
31
0.920526
0
LINE
8
ball_wire - ball_partition
62
20
10
0.790788
20
-4.000000
30
0.937755
11
0.652446
21
-4.000000
31
0.498988
0
LINE
8
ball_wire - ball_partition
62
20
10
0.652446
20
-4.000000
30
0.498988
11
0.695577
21
-3.542058
31
0.489820
0
LINE
8
ball_wire - ball_partition
62
20
10
0.652446
20
-4.000000
30
0.498988
11
0.600000
21
-4.000000
31
-0.000000
0
LINE
8
ball_wire - ball_partition
62
20
10
0.600000
20
-4.000000
30
-0.000000
11
0.644094
21
-3.542058
31
-0.000000
0
LINE
8
ball_wire - ball_partition
62
20
10
0.600000
20
-4.000000
30
-0.000000
11
0.644094
21
-4.000000
31
-0.457942
0
LINE
8
ball_wire - ball_partition
62
20
10
0.644094
20
-4.000000
30
-0.457942
11
0.687379
21
-3.542058
31
-0.449528
0
LINE
8
ball_wire - ball_partition
62
20
10
0.644094
20
-4.000000
30
-0.457942
11
0.774759
21
-4.000000
31
-0.899056
0
LINE
8
ball_wire - ball_partition
62
20
10
0.774759
20
-4.000000
30
-0.899056
11
0.815643
21
-3.542058
31
-0.882538
0
LINE
8
ball_wire - ball_partition
62
20
10
0.774759
20
-4.000000
30
-0.899056
11
0.987190
21
-4.000000
31
-1.307134
0
LINE
8
ball_wire - ball_partition
62
20
10
0.987190
20
-4.000000
30
-1.307134
11
1.024171
21
-3.542058
31
-1.283118
0
LINE
8
ball_wire - ball_partition
62
20
10
0.987190
20
-4.000000
30
-1.307134
11
1.302944
21
-4.000000
31
-1.697056
0
LINE
8
ball_wire - ball_partition
62
20
10
1.302944
20
-4.000000
30
-1.697056
11
1.334123
21
-3.542058
31
-1.665877
0
LINE
8
ball_wire - ball_partition
62
20
10
1.302944
20
-4.000000
30
-1.697056
11
1.657937
21
-4.000000
31
-1.989690
0
LINE
8
ball_wire - ball_partition
62
20
10
1.657937
20
-4.000000
30
-1.989690
11
1.682594
21
-3.542058
31
-1.953134
0
LINE
8
ball_wire - ball_partition
62
20
10
1.657937
20
-4.000000
30
-1.989690
11
2.062245
21
-4.000000
31
-2.209212
0
LINE
8
ball_wire - ball_partition
62
20
10
2.062245
20
-4.000000
30
-2.209212
11
2.079474
21
-3.542058
31
-2.168622
0
LINE
8
ball_wire - ball_partition
62
20
10
2.062245
20
-4.000000
30
-2.209212
11
2.501011
21
-4.000000
31
-2.347554
0
LINE
8
ball_wire - ball_partition
62
20
10
2.501011
20
-4.000000
30
-2.347554
11
2.510179
21
-3.542058
31
-2.304423
0
LINE
8
ball_wire - ball_partition
62
20
10
2.501011
20
-4.000000
30
-2.347554
11
3.000000
21
-4.000000
31
-2.400000
0
LINE
8
ball_wire - ball_partition
62
20
10
3.000000
20
-4.000000
30
-2.400000
11
3.000000
21
-3.542058
31
-2.355906
0
LINE
8
ball_wire - ball_partition
62
20
10
3.000000
20
-4.000000
30
-2.400000
11
3.457941
21
-4.000000
31
-2.355906
0
LINE
8
ball_wire - ball_partition
62
20
10
3.457941
20
-4.000000
30
-2.355906
11
3.449528
21
-3.542058
31
-2.312621
0
LINE
8
ball_wire - ball_partition
62
20
10
3.457941
20
-4.000000
30
-2.355906
11
3.899056
21
-4.000000
31
-2.225241
0
LINE
8
ball_wire - ball_partition
62
20
10
3.899056
20
-4.000000
30
-2.225241
11
3.882538
21
-3.542058
31
-2.184357
0
LINE
8
ball_wire - ball_partition
62
20
10
3.899056
20
-4.000000
30
-2.225241
11
4.307134
21
-4.000000
31
-2.012809
0
LINE
8
ball_wire - ball_partition
62
20
10
4.307134
20
-4.000000
30
-2.012809
11
4.283118
21
-3.542058
31
-1.975828
0
LINE
8
ball_wire - ball_partition
62
20
10
4.307134
20
-4.000000
30
-2.012809
11
4.697056
21
-4.000000
31
-1.697057
0
LINE
8
ball_wire - ball_partition
62
20
10
4.697056
20
-4.000000
30
-1.697057
11
4.665876
21
-3.542058
31
-1.665877
0
LINE
8
ball_wire - ball_partition
62
20
10
4.697056
20
-4.000000
30
-1.697057
11
4.989690
21
-4.000000
31
-1.342063
0
LINE
8
ball_wire - ball_partition
62
20
10
4.989690
20
-4.000000
30
-1.342063
11
4.953135
21
-3.542058
31
-1.317405
0
LINE
8
ball_wire - ball_partition
62
20
10
4.989690
20
-4.000000
30
-1.342063
11
5.209212
21
-4.000000
31
-0.937755
0
LINE
8
ball_wire - ball_partition
62
20
10
5.209212
20
-4.000000
30
-0.937755
11
5.168622
21
-3.542058
31
-0.920525
0
LINE
8
ball_wire - ball_partition
62
20
10
5.209212
20
-4.000000
30
-0.937755
11
5.347554
21
-4.000000
31
-0.498988
0
LINE
8
ball_wire - ball_partition
62
20
10
5.347554
20
-4.000000
30
-0.498988
11
5.304423
21
-3.542058
31
-0.489820
0
LINE
8
ball_wire - ball_partition
62
20
10
5.347554
20
-4.000000
30
-0.498988
11
5.400000
21
-4.000000
31
0.000000
0
LINE
8
ball_wire - ball_partition
62
20
10
5.355906
20
-3.542058
30
0.000000
11
5.225242
21
-3.100944
31
0.000000
0
LINE
8
ball_wire - ball_partition
62
20
10
5.355906
20
-3.542058
30
0.000000
11
5.312621
21
-3.542058
31
0.449528
0
LINE
8
ball_wire - ball_partition
62
20
10
5.312621
20
-3.542058
30
0.449528
11
5.184358
21
-3.100944
31
0.424596
0
LINE
8
ball_wire - ball_partition
62
20
10
5.312621
20
-3.542058
30
0.449528
11
5.184358
21
-3.542058
31
0.882538
0
LINE
8
ball_wire - ball_partition
62
20
10
5.184358
20
-3.542058
30
0.882538
11
5.063208
21
-3.100944
31
0.833590
0
LINE
8
ball_wire - ball_partition
62
20
10
5.184358
20
-3.542058
30
0.882538
11
4.975829
21
-3.542058
31
1.283118
0
LINE
8
ball_wire - ball_partition
62
20
10
4.975829
20
-3.542058
30
1.283118
11
4.866244
21
-3.100944
31
1.211953
0
LINE
8
ball_wire - ball_partition
62
20
10
4.975829
20
-3.542058
30
1.283118
11
4.665877
21
-3.542058
31
1.665877
0
LINE
8
ball_wire - ball_partition
62
20
10
4.665877
20
-3.542058
30
1.665877
11
4.573483
21
-3.100944
31
1.573483
0
LINE
8
ball_wire - ball_partition
62
20
10
4.665877
20
-3.542058
30
1.665877
11
4.317406
21
-3.542058
31
1.953134
0
LINE
8
ball_wire - ball_partition
62
20
10
4.317406
20
-3.542058
30
1.953134
11
4.244339
21
-3.100944
31
1.844809
0
LINE
8
ball_wire - ball_partition
62
20
10
4.317406
20
-3.542058
30
1.953134
11
3.920526
21
-3.542058
31
2.168622
0
LINE
8
ball_wire - ball_partition
62
20
10
3.920526
20
-3.542058
30
2.168622
11
3.869471
21
-3.100944
31
2.048346
0
LINE
8
ball_wire - ball_partition
62
20
10
3.920526
20
-3.542058
30
2.168622
11
3.489820
21
-3.542058
31
2.304423
0
LINE
8
ball_wire - ball_partition
62
20
10
3.489820
20
-3.542058
30
2.304423
11
3.462654
21
-3.100944
31
2.176615
0
LINE
8
ball_wire - ball_partition
62
20
10
3.489820
20
-3.542058
30
2.304423
11
3.000000
21
-3.542058
31
2.355906
0
LINE
8
ball_wire - ball_partition
62
20
10
3.000000
20
-3.542058
30
2.355906
11
3.000000
21
-3.100944
31
2.225241
0
LINE
8
ball_wire - ball_partition
62
20
10
3.000000
20
-3.542058
30
2.355906
11
2.550472
21
-3.542058
31
2.312621
0
LINE
8
ball_wire - ball_partition
62
20
10
2.550472
20
-3.542058
30
2.312621
11
2.575404
21
-3.100944
31
2.184357
0
LINE
8
ball_wire - ball_partition
62
20
10
2.550472
20
-3.542058
30
2.312621
11
2.117462
21
-3.542058
31
2.184357
0
LINE
8
ball_wire - ball_partition
62
20
10
2.117462
20
-3.542058
30
2.184357
11
2.166410
21
-3.100944
31
2.063208
0
LINE
8
ball_wire - ball_partition
62
20
10
2.117462
20
-3.542058
30
2.184357
11
1.716882
21
-3.542058
31
1.975829
0
LINE
8
ball_wire - ball_partition
62
20
10
1.716882
20
-3.542058
30
1.975829
11
1.788047
21
-3.100944
31
1.866244
0
LINE
8
ball_wire - ball_partition
62
20
10
1.716882
20
-3.542058
30
1.975829
11
1.334123
21
-3.542058
31
1.665877
0
LINE
8
ball_wire - ball_partition
62
20
10
1.334123
20
-3.542058
30
1.665877
11
1.426517
21
-3.100944
31
1.573483
0
LINE
8
ball_wire - ball_partition
62
20
10
1.334123
20
-3.542058
30
1.665877
11
1.046866
21
-3.542058
31
1.317405
0
LINE
8
ball_wire - ball_partition
62
20
10
1.046866
20
-3.542058
30
1.317405
11
1.155191
21
-3.100944
31
1.244339
0
LINE
8
ball_wire - ball_partition
62
20
10
1.046866
20
-3.542058
30
1.317405
11
0.831378
21
-3.542058
31
0.920526
0
LINE
8
ball_wire - ball_partition
62
20
10
0.831378
20
-3.542058
30
0.920526
11
0.951655
21
-3.100944
31
0.869471
0
LINE
8
ball_wire - ball_partition
62
20
10
0.831378
20
-3.542058
30
0.920526
11
0.695577
21
-3.542058
31
0.489820
0
LINE
8
ball_wire - ball_partition
62
20
10
0.695577
20
-3.542058
30
0.489820
11
0.823385
21
-3.100944
31
0.462653
0
LINE
8
ball_wire - ball_partition
62
20
10
0.695577
20
-3.542058
30
0.489820
11
0.644094
21
-3.542058
31
-0.000000
0
LINE
8
ball_wire - ball_partition
62
20
10
0.644094
20
-3.542058
30
-0.000000
11
0.774759
21
-3.100944
31
-0.000000
0
LINE
8
ball_wire - ball_partition
62
20
10
0.644094
20
-3.542058
30
-0.000000
11
0.687379
21
-3.542058
31
-0.449528
0
LINE
8
ball_wire - ball_partition
62
20
10
0.687379
20
-3.542058
30
-0.449528
11
0.815643
21
-3.100944
31
-0.424596
0
LINE
8
ball_wire - ball_partition
62
20
10
0.687379
20
-3.542058
30
-0.449528
11
0.815643
21
-3.542058
31
-0.882538
0
LINE
8
ball_wire - ball_partition
62
20
10
0.815643
20
-3.542058
30
-0.882538
11
0.936792
21
-3.100944
31
-0.833590
0
LINE
8
ball_wire - ball_partition
62
20
10
0.815643
20
-3.542058
30
-0.882538
11
1.024171
21
-3.542058
31
-1.283118
0
LINE
8
ball_wire - ball_partition
62
20
10
1.024171
20
-3.542058
30
-1.283118
11
1.133756
21
-3.100944
31
-1.211953
0
LINE
8
ball_wire - ball_partition
62
20
10
1.024171
20
-3.542058
30
-1.283118
11
1.334123
21
-3.542058
31
-1.665877
0
LINE
8
ball_wire - ball_partition
62
20
10
1.334123
20
-3.542058
30
-1.665877
11
1.426517
21
-3.100944
31
-1.573483
0
LINE
8
ball_wire - ball_partition
62
20
10
1.334123
20
-3.542058
30
-1.665877
11
1.682594
21
-3.542058
31
-1.953134
0
LINE
8
ball_wire - ball_partition
62
20
10
1.682594
20
-3.542058
30
-1.953134
11
1.755661
21
-3.100944
31
-1.844809
0
LINE
8
ball_wire - ball_partition
62
20
10
1.682594
20
-3.542058
30
-1.953134
11
2.079474
21
-3.542058
31
-2.168622
0
LINE
8
ball_wire - ball_partition
62
20
10
2.079474
20
-3.542058
30
-2.168622
11
2.130529
21
-3.100944
31
-2.048345
0
LINE
8
ball_wire - ball_partition
62
20
10
2.079474
20
-3.542058
30
-2.168622
11
2.510179
21
-3.542058
31
-2.304423
0
LINE
8
ball_wire - ball_partition
62
20
10
2.510179
20
-3.542058
30
-2.304423
11
2.537346
21
-3.100944
31
-2.176615
0
LINE
8
ball_wire - ball_partition
62
20
10
2.510179
20
-3.542058
30
-2.304423
11
3.000000
21
-3.542058
31
-2.355906
0
LINE
8
ball_wire - ball_partition
62
20
10
3.000000
20
-3.542058
30
-2.355906
11
3.000000
21
-3.100944
31
-2.225241
0
LINE
8
ball_wire - ball_partition
62
20
10
3.000000
20
-3.542058
30
-2.355906
11
3.449528
21
-3.542058
31
-2.312621
0
LINE
8
ball_wire - ball_partition
62
20
10
3.449528
20
-3.542058
30
-2.312621
11
3.424596
21
-3.100944
31
-2.184357
0
LINE
8
ball_wire - ball_partition
62
20
10
3.449528
20
-3.542058
30
-2.312621
11
3.882538
21
-3.542058
31
-2.184357
0
LINE
8
ball_wire - ball_partition
62
20
10
3.882538
20
-3.542058
30
-2.184357
11
3.833591
21
-3.100944
31
-2.063208
0
LINE
8
ball_wire - ball_partition
62
20
10
3.882538
20
-3.542058
30
-2.184357
11
4.283118
21
-3.542058
31
-1.975828
0
LINE
8
ball_wire - ball_partition
62
20
10
4.283118
20
-3.542058
30
-1.975828
11
4.211954
21
-3.100944
31
-1.866244
0
LINE
8
ball_wire - ball_partition
62
20
10
4.283118
20
-3.542058
30
-1.975828
11
4.665876
21
-3.542058
31
-1.665877
0
LINE
8
ball_wire - ball_partition
62
20
10
4.665876
20
-3.542058
30
-1.665877
11
4.573483
21
-3.100944
31
-1.573483
0
LINE
8
ball_wire - ball_partition
62
20
10
4.665876
20
-3.542058
30
-1.665877
11
4.953135
21
-3.542058
31
-1.317405
0
LINE
8
ball_wire - ball_partition
62
20
10
4.953135
20
-3.542058
30
-1.317405
11
4.844809
21
-3.100944
31
-1.244339
0
LINE
8
ball_wire - ball_partition
62
20
10
4.953135
20
-3.542058
30
-1.317405
11
5.168622
21
-3.542058
31
-0.920525
0
LINE
8
ball_wire - ball_partition
62
20
10
5.168622
20
-3.542058
30
-0.920525
11
5.048346
21
-3.100944
31
-0.869471
0
LINE
8
ball_wire - ball_partition
62
20
10
5.168622
20
-3.542058
30
-0.920525
11
5.304423
21
-3.542058
31
-0.489820
0
LINE
8
ball_wire - ball_partition
62
20
10
5.304423
20
-3.542058
30
-0.489820
11
5.176615
21
-3.100944
31
-0.462654
0
LINE
8
ball_wire - ball_partition
62
20
10
5.304423
20
-3.542058
30
-0.489820
11
5.355906
21
-3.542058
31
0.000000
0
LINE
8
ball_wire - ball_partition
62
20
10
5.225242
20
-3.100944
30
0.000000
11
5.012810
21
-2.692866
31
0.000000
0
LINE
8
ball_wire - ball_partition
62
20
10
5.225242
20
-3.100944
30
0.000000
11
5.184358
21
-3.100944
31
0.424596
0
LINE
8
ball_wire - ball_partition
62
20
10
5.184358
20
-3.100944
30
0.424596
11
4.975829
21
-2.692866
31
0.384062
0
LINE
8
ball_wire - ball_partition
62
20
10
5.184358
20
-3.100944
30
0.424596
11
5.063208
21
-3.100944
31
0.833590
0
LINE
8
ball_wire - ball_partition
62
20
10
5.063208
20
-3.100944
30
0.833590
11
4.866244
21
-2.692866
31
0.754012
0
LINE
8
ball_wire - ball_partition
62
20
10
5.063208
20
-3.100944
30
0.833590
11
4.866244
21
-3.100944
31
1.211953
0
LINE
8
ball_wire - ball_partition
62
20
10
4.866244
20
-3.100944
30
1.211953
11
4.688084
21
-2.692866
31
1.096255
0
LINE
8
ball_wire - ball_partition
62
20
10
4.866244
20
-3.100944
30
1.211953
11
4.573483
21
-3.100944
31
1.573483
0
LINE
8
ball_wire - ball_partition
62
20
10
4.573483
20
-3.100944
30
1.573483
11
4.423271
21
-2.692866
31
1.423271
0
LINE
8
ball_wire - ball_partition
62
20
10
4.573483
20
-3.100944
30
1.573483
11
4.244339
21
-3.100944
31
1.844809
0
LINE
8
ball_wire - ball_partition
62
20
10
4.244339
20
-3.100944
30
1.844809
11
4.125549
21
-2.692866
31
1.668695
0
LINE
8
ball_wire - ball_partition
62
20
10
4.244339
20
-3.100944
30
1.844809
11
3.869471
21
-3.100944
31
2.048346
0
LINE
8
ball_wire - ball_partition
62
20
10
3.869471
20
-3.100944
30
2.048346
11
3.786467
21
-2.692866
31
1.852801
0
LINE
8
ball_wire - ball_partition
62
20
10
3.869471
20
-3.100944
30
2.048346
11
3.462654
21
-3.100944
31
2.176615
0
LINE
8
ball_wire - ball_partition
62
20
10
3.462654
20
-3.100944
30
2.176615
11
3.418487
21
-2.692866
31
1.968825
0
LINE
8
ball_wire - ball_partition
62
20
10
3.462654
20
-3.100944
30
2.176615
11
3.000000
21
-3.100944
31
2.225241
0
LINE
8
ball_wire - ball_partition
62
20
10
3.000000
20
-3.100944
30
2.225241
11
3.000000
21
-2.692866
31
2.012810
0
LINE
8
ball_wire - ball_partition
62
20
10
3.000000
20
-3.100944
30
2.225241
11
2.575404
21
-3.100944
31
2.184357
0
LINE
8
ball_wire - ball_partition
62
20
10
2.575404
20
-3.100944
30
2.184357
11
2.615938
21
-2.692866
31
1.975828
0
LINE
8
ball_wire - ball_partition
62
20
10
2.575404
20
-3.100944
30
2.184357
11
2.166410
21
-3.100944
31
2.063208
0
LINE
8
ball_wire - ball_partition
62
20
10
2.166410
20
-3.100944
30
2.063208
11
2.245988
21
-2.692866
31
1.866244
0
LINE
8
ball_wire - ball_partition
62
20
10
2.166410
20
-3.100944
30
2.063208
11
1.788047
21
-3.100944
31
1.866244
0
LINE
8
ball_wire - ball_partition
62
20
10
1.788047
20
-3.100944
30
1.866244
11
1.903745
21
-2.692866
31
1.688084
0
LINE
8
ball_wire - ball_partition
62
20
10
1.788047
20
-3.100944
30
1.866244
11
1.426517
21
-3.100944
31
1.573483
0
LINE
8
ball_wire - ball_partition
62
20
10
1.426517
20
-3.100944
30
1.573483
11
1.576729
21
-2.692866
31
1.423271
0
LINE
8
ball_wire - ball_partition
62
20
10
1.426517
20
-3.100944
30
1.573483
11
1.155191
21
-3.100944
31
1.244339
0
LINE
8
ball_wire - ball_partition
62
20
10
1.155191
20
-3.100944
30
1.244339
11
1.331305
21
-2.692866
31
1.125549
0
LINE
8
ball_wire - ball_partition
62
20
10
1.155191
20
-3.100944
30
1.244339
11
0.951655
21
-3.100944
31
0.869471
0
LINE
8
ball_wire - ball_partition
62
20
10
0.951655
20
-3.100944
30
0.869471
11
1.147199
21
-2.692866
31
0.786467
0
LINE
8
ball_wire - ball_partition
62
20
10
0.951655
20
-3.100944
30
0.869471
11
0.823385
21
-3.100944
31
0.462653
0
LINE
8
ball_wire - ball_partition
62
20
10
0.823385
20
-3.100944
30
0.462653
11
1.031175
21
-2.692866
31
0.418486
0
LINE
8
ball_wire - ball_partition
62
20
10
0.823385
20
-3.100944
30
0.462653
11
0.774759
21
-3.100944
31
-0.000000
0
LINE
8
ball_wire - ball_partition
62
20
10
0.774759
20
-3.100944
30
-0.000000
11
0.987190
21
-2.692866
31
-0.000000
0
LINE
8
ball_wire - ball_partition
62
20
10
0.774759
20
-3.100944
30
-0.000000
11
0.815643
21
-3.100944
31
-0.424596
0
LINE
8
ball_wire - ball_partition
62
20
10
0.815643
20
-3.100944
30
-0.424596
11
1.024171
21
-2.692866
31
-0.384062
0
LINE
8
ball_wire - ball_partition
62
20
10
0.815643
20
-3.100944
30
-0.424596
11
0.936792
21
-3.100944
31
-0.833590
0
LINE
8
ball_wire - ball_partition
62
20
10
0.936792
20
-3.100944
30
-0.833590
11
1.133756
21
-2.692866
31
-0.754012
0
LINE
8
ball_wire - ball_partition
62
20
10
0.936792
20
-3.100944
30
-0.833590
11
1.133756
21
-3.100944
31
-1.211953
0
LINE
8
ball_wire - ball_partition
62
20
10
1.133756
20
-3.100944
30
-1.211953
11
1.311916
21
-2.692866
31
-1.096254
0
LINE
8
ball_wire - ball_partition
62
20
10
1.133756
20
-3.100944
30
-1.211953
11
1.426517
21
-3.100944
31
-1.573483
0
LINE
8
ball_wire - ball_partition
62
20
10
1.426517
20
-3.100944
30
-1.573483
11
1.576729
21
-2.692866
31
-1.423271
0
LINE
8
ball_wire - ball_partition
62
20
10
1.426517
20
-3.100944
30
-1.573483
11
1.755661
21
-3.100944
31
-1.844809
0
LINE
8
ball_wire - ball_partition
62
20
10
1.755661
20
-3.100944
30
-1.844809
11
1.874451
21
-2.692866
31
-1.668695
0
LINE
8
ball_wire - ball_partition
62
20
10
1.755661
20
-3.100944
30
-1.844809
11
2.130529
21
-3.100944
31
-2.048345
0
LINE
8
ball_wire - ball_partition
62
20
10
2.130529
20
-3.100944
30
-2.048345
11
2.213532
21
-2.692866
31
-1.852801
0
LINE
8
ball_wire - ball_partition
62
20
10
2.130529
20
-3.100944
30
-2.048345
11
2.537346
21
-3.100944
31
-2.176615
0
LINE
8
ball_wire - ball_partition
62
20
10
2.537346
20
-3.100944
30
-2.176615
11
2.581513
21
-2.692866
31
-1.968825
0
LINE
8
ball_wire - ball_partition
62
20
10
2.537346
20
-3.100944
30
-2.176615
11
3.000000
21
-3.100944
31
-2.225241
0
LINE
8
ball_wire - ball_partition
62
20
10
3.000000
20
-3.100944
30
-2.225241
11
3.000000
21
-2.692866
31
-2.012810
0
LINE
8
ball_wire - ball_partition
62
20
10
3.000000
20
-3.100944
30
-2.225241
11
3.424596
21
-3.100944
31
-2.184357
0
LINE
8
ball_wire - ball_partition
62
20
10
3.424596
20
-3.100944
30
-2.184357
11
3.384062
21
-2.692866
31
-1.975829
0
LINE
8
ball_wire - ball_partition
62
20
10
3.424596
20
-3.100944
30
-2.184357
11
3.833591
21
-3.100944
31
-2.063208
0
LINE
8
ball_wire - ball_partition
62
20
10
3.833591
20
-3.100944
30
-2.063208
11
3.754012
21
-2.692866
31
-1.866244
0
LINE
8
ball_wire - ball_partition
62
20
10
3.833591
20
-3.100944
30
-2.063208
11
4.211954
21
-3.100944
31
-1.866244
0
LINE
8
ball_wire - ball_partition
62
20
10
4.211954
20
-3.100944
30
-1.866244
11
4.096255
21
-2.692866
31
-1.688084
0
LINE
8
ball_wire - ball_partition
62
20
10
4.211954
20
-3.100944
30
-1.866244
11
4.573483
21
-3.100944
31
-1.573483
0
LINE
8
ball_wire - ball_partition
62
20
10
4.573483
20
-3.100944
30
-1.573483
11
4.423271
21
-2.692866
31
-1.423271
0
LINE
8
ball_wire - ball_partition
62
20
10
4.573483
20
-3.100944
30
-1.573483
11
4.844809
21
-3.100944
31
-1.244339
0
LINE
8
ball_wire - ball_partition
62
20
10
4.844809
20
-3.100944
30
-1.244339
11
4.668695
21
-2.692866
31
-1.125548
0
LINE
8
ball_wire - ball_partition
62
20
10
4.844809
20
-3.100944
30
-1.244339
11
5.048346
21
-3.100944
31
-0.869471
0
LINE
8
ball_wire - ball_partition
62
20
10
5.048346
20
-3.100944
30
-0.869471
11
4.852801
21
-2.692866
31
-0.786467
0
LINE
8
ball_wire - ball_partition
62
20
10
5.048346
20
-3.100944
30
-0.869471
11
5.176615
21
-3.100944
31
-0.462654
0
LINE
8
ball_wire - ball_partition
62
20
10
5.176615
20
-3.100944
30
-0.462654
11
4.968825
21
-2.692866
31
-0.418487
0
LINE
8
ball_wire - ball_partition
62
20
10
5.176615
20
-3.100944
30
-0.462654
11
5.225242
21
-3.100944
31
0.000000
0
LINE
8
ball_wire - ball_partition
62
20
10
5.012810
20
-2.692866
30
0.000000
11
4.697056
21
-2.302944
31
0.000000
0
LINE
8
ball_wire - ball_partition
62
20
10
5.012810
20
-2.692866
30
0.000000
11
4.975829
21
-2.692866
31
0.384062
0
LINE
8
ball_wire - ball_partition
62
20
10
4.975829
20
-2.692866
30
0.384062
11
4.665877
21
-2.302944
31
0.323814
0
LINE
8
ball_wire - ball_partition
62
20
10
4.975829
20
-2.692866
30
0.384062
11
4.866244
21
-2.692866
31
0.754012
0
LINE
8
ball_wire - ball_partition
62
20
10
4.866244
20
-2.692866
30
0.754012
11
4.573483
21
-2.302944
31
0.635728
0
LINE
8
ball_wire - ball_partition
62
20
10
4.866244
20
-2.692866
30
0.754012
11
4.688084
21
-2.692866
31
1.096255
0
LINE
8
ball_wire - ball_partition
62
20
10
4.688084
20
-2.692866
30
1.096255
11
4.423271
21
-2.302944
31
0.924283
0
LINE
8
ball_wire - ball_partition
62
20
10
4.688084
20
-2.692866
30
1.096255
11
4.423271
21
-2.692866
31
1.423271
0
LINE
8
ball_wire - ball_partition
62
20
10
4.423271
20
-2.692866
30
1.423271
11
4.200000
21
-2.302944
31
1.200000
0
LINE
8
ball_wire - ball_partition
62
20
10
4.423271
20
-2.692866
30
1.423271
11
4.125549
21
-2.692866
31
1.668695
0
LINE
8
ball_wire - ball_partition
62
20
10
4.125549
20
-2.692866
30
1.668695
11
3.948982
21
-2.302944
31
1.406923
0
LINE
8
ball_wire - ball_partition
62
20
10
4.125549
20
-2.692866
30
1.668695
11
3.786467
21
-2.692866
31
1.852801
0
LINE
8
ball_wire - ball_partition
62
20
10
3.786467
20
-2.692866
30
1.852801
11
3.663093
21
-2.302944
31
1.562149
0
LINE
8
ball_wire - ball_partition
62
20
10
3.786467
20
-2.692866
30
1.852801
11
3.418487
21
-2.692866
31
1.968825
0
LINE
8
ball_wire - ball_partition
62
20
10
3.418487
20
-2.692866
30
1.968825
11
3.352838
21
-2.302944
31
1.659972
0
LINE
8
ball_wire - ball_partition
62
20
10
3.418487
20
-2.692866
30
1.968825
11
3.000000
21
-2.692866
31
2.012810
0
LINE
8
ball_wire - ball_partition
62
20
10
3.000000
20
-2.692866
30
2.012810
11
3.000000
21
-2.302944
31
1.697056
0
LINE
8
ball_wire - ball_partition
62
20
10
3.000000
20
-2.692866
30
2.012810
11
2.615938
21
-2.692866
31
1.975828
0
LINE
8
ball_wire - ball_partition
62
20
10
2.615938
20
-2.692866
30
1.975828
11
2.676186
21
-2.302944
31
1.665877
0
LINE
8
ball_wire - ball_partition
62
20
10
2.615938
20
-2.692866
30
1.975828
11
2.245988
21
-2.692866
31
1.866244
0
LINE
8
ball_wire - ball_partition
62
20
10
2.245988
20
-2.692866
30
1.866244
11
2.364272
21
-2.302944
31
1.573483
0
LINE
8
ball_wire - ball_partition
62
20
10
2.245988
20
-2.692866
30
1.866244
11
1.903745
21
-2.692866
31
1.688084
0
LINE
8
ball_wire - ball_partition
62
20
10
1.903745
20
-2.692866
30
1.688084
11
2.075717
21
-2.302944
31
1.423271
0
LINE
8
ball_wire - ball_partition
62
20
10
1.903745
20
-2.692866
30
1.688084
11
1.576729
21
-2.692866
31
1.423271
0
LINE
8
ball_wire - ball_partition
62
20
10
1.576729
20
-2.692866
30
1.423271
11
1.800000
21
-2.302944
31
1.200000
0
LINE
8
ball_wire - ball_partition
62
20
10
1.576729
20
-2.692866
30
1.423271
11
1.331305
21
-2.692866
31
1.125549
0
LINE
8
ball_wire - ball_partition
62
20
10
1.331305
20
-2.692866
30
1.125549
11
1.593076
21
-2.302944
31
0.948982
0
LINE
8
ball_wire - ball_partition
62
20
10
1.331305
20
-2.692866
30
1.125549
11
1.147199
21
-2.692866
31
0.786467
0
LINE
8
ball_wire - ball_partition
62
20
10
1.147199
20
-2.692866
30
0.786467
11
1.437852
21
-2.302944
31
0.663093
0
LINE
8
ball_wire - ball_partition
62
20
10
1.147199
20
-2.692866
30
0.786467
11
1.031175
21
-2.692866
31
0.418486
0
LINE
8
ball_wire - ball_partition
62
20
10
1.031175
20
-2.692866
30
0.418486
11
1.340028
21
-2.302944
31
0.352838
0
LINE
8
ball_wire - ball_partition
62
20
10
1.031175
20
-2.692866
30
0.418486
11
0.987190
21
-2.692866
31
-0.000000
0
LINE
8
ball_wire - ball_partition
62
20
10
0.987190
20
-2.692866
30
-0.000000
11
1.302944
21
-2.302944
31
-0.000000
0
LINE
8
ball_wire - ball_partition
62
20
10
0.987190
20
-2.692866
30
-0.000000
11
1.024171
21
-2.692866
31
-0.384062
0
LINE
8
ball_wire - ball_partition
62
20
10
1.024171
20
-2.692866
30
-0.384062
11
1.334123
21
-2.302944
31
-0.323814
0
LINE
8
ball_wire - ball_partition
62
20
10
1.024171
20
-2.692866
30
-0.384062
11
1.133756
21
-2.692866
31
-0.754012
0
LINE
8
ball_wire - ball_partition
62
20
10
1.133756
20
-2.692866
30
-0.754012
11
1.426517
21
-2.302944
31
-0.635729
0
LINE
8
ball_wire - ball_partition
62
20
10
1.133756
20
-2.692866
30
-0.754012
11
1.311916
21
-2.692866
31
-1.096254
0
LINE
8
ball_wire - ball_partition
62
20
10
1.311916
20
-2.692866
30
-1.096254
11
1.576729
21
-2.302944
31
-0.924283
0
LINE
8
ball_wire - ball_partition
62
20
10
1.311916
20
-2.692866
30
-1.096254
11
1.576729
21
-2.692866
31
-1.423271
0
LINE
8
ball_wire - ball_partition
62
20
10
1.576729
20
-2.692866
30
-1.423271
11
1.800000
21
-2.302944
31
-1.200000
0
LINE
8
ball_wire - ball_partition
62
20
10
1.576729
20
-2.692866
30
-1.423271
11
1.874451
21
-2.692866
31
-1.668695
0
LINE
8
ball_wire - ball_partition
62
20
10
1.874451
20
-2.692866
30
-1.668695
11
2.051018
21
-2.302944
31
-1.406924
0
LINE
8
ball_wire - ball_partition
62
20
10
1.874451
20
-2.692866
30
-1.668695
11
2.213532
21
-2.692866
31
-1.852801
0
LINE
8
ball_wire - ball_partition
62
20
10
2.213532
20
-2.692866
30
-1.852801
11
2.336907
21
-2.302944
31
-1.562148
0
LINE
8
ball_wire - ball_partition
62
20
10
2.213532
20
-2.692866
30
-1.852801
11
2.581513
21
-2.692866
31
-1.968825
0
LINE
8
ball_wire - ball_partition
62
20
10
2.581513
20
-2.692866
30
-1.968825
11
2.647162
21
-2.302944
31
-1.659971
0
LINE
8
ball_wire - ball_partition
62
20
10
2.581513
20
-2.692866
30
-1.968825
11
3.000000
21
-2.692866
31
-2.012810
0
LINE
8
ball_wire - ball_partition
62
20
10
3.000000
20
-2.692866
30
-2.012810
11
3.000000
21
-2.302944
31
-1.697056
0
LINE
8
ball_wire - ball_partition
62
20
10
3.000000
20
-2.692866
30
-2.012810
11
3.384062
21
-2.692866
31
-1.975829
0
LINE
8
ball_wire - ball_partition
62
20
10
3.384062
20
-2.692866
30
-1.975829
11
3.323813
21
-2.302944
31
-1.665877
0
LINE
8
ball_wire - ball_partition
62
20
10
3.384062
20
-2.692866
30
-1.975829
11
3.754012
21
-2.692866
31
-1.866244
0
LINE
8
ball_wire - ball_partition
62
20
10
3.754012
20
-2.692866
30
-1.866244
11
3.635729
21
-2.302944
31
-1.573483
0
LINE
8
ball_wire - ball_partition
62
20
10
3.754012
20
-2.692866
30
-1.866244
11
4.096255
21
-2.692866
31
-1.688084
0
LINE
8
ball_wire - ball_partition
62
20
10
4.096255
20
-2.692866
30
-1.688084
11
3.924283
21
-2.302944
31
-1.423271
0
LINE
8
ball_wire - ball_partition
62
20
10
4.096255
20
-2.692866
30
-1.688084
11
4.423271
21
-2.692866
31
-1.423271
0
LINE
8
ball_wire - ball_partition
62
20
10
4.423271
20
-2.692866
30
-1.423271
11
4.200000
21
-2.302944
31
-1.200000
0
LINE
8
ball_wire - ball_partition
62
20
10
4.423271
20
-2.692866
30
-1.423271
11
4.668695
21
-2.692866
31
-1.125548
0
LINE
8
ball_wire - ball_partition
62
20
10
4.668695
20
-2.692866
30
-1.125548
11
4.406923
21
-2.302944
31
-0.948982
0
LINE
8
ball_wire - ball_partition
62
20
10
4.668695
20
-2.692866
30
-1.125548
11
4.852801
21
-2.692866
31
-0.786467
0
LINE
8
ball_wire - ball_partition
62
20
10
4.852801
20
-2.692866
30
-0.786467
11
4.562149
21
-2.302944
31
-0.663093
0
LINE
8
ball_wire - ball_partition
62
20
10
4.852801
20
-2.692866
30
-0.786467
11
4.968825
21
-2.692866
31
-0.418487
0
LINE
8
ball_wire - ball_partition
62
20
10
4.968825
20
-2.692866
30
-0.418487
11
4.659972
21
-2.302944
31
-0.352838
0
LINE
8
ball_wire - ball_partition
62
20
10
4.968825
20
-2.692866
30
-0.418487
11
5.012810
21
-2.692866
31
0.000000
0
LINE
8
ball_wire - ball_partition
62
20
10
4.697056
20
-2.302944
30
0.000000
11
4.342063
21
-2.010310
31
0.000000
0
LINE
8
ball_wire - ball_partition
62
20
10
4.697056
20
-2.302944
30
0.000000
11
4.665877
21
-2.302944
31
0.323814
0
LINE
8
ball_wire - ball_partition
62
20
10
4.665877
20
-2.302944
30
0.323814
11
4.317406
21
-2.010310
31
0.256078
0
LINE
8
ball_wire - ball_partition
62
20
10
4.665877
20
-2.302944
30
0.323814
11
4.573483
21
-2.302944
31
0.635728
0
LINE
8
ball_wire - ball_partition
62
20
10
4.573483
20
-2.302944
30
0.635728
11
4.244339
21
-2.010310
31
0.502746
0
LINE
8
ball_wire - ball_partition
62
20
10
4.573483
20
-2.302944
30
0.635728
11
4.423271
21
-2.302944
31
0.924283
0
LINE
8
ball_wire - ball_partition
62
20
10
4.423271
20
-2.302944
30
0.924283
11
4.125549
21
-2.010310
31
0.730940
0
LINE
8
ball_wire - ball_partition
62
20
10
4.423271
20
-2.302944
30
0.924283
11
4.200000
21
-2.302944
31
1.200000
0
LINE
8
ball_wire - ball_partition
62
20
10
4.200000
20
-2.302944
30
1.200000
11
3.948982
21
-2.010310
31
0.948982
0
LINE
8
ball_wire - ball_partition
62
20
10
4.200000
20
-2.302944
30
1.200000
11
3.948982
21
-2.302944
31
1.406923
0
LINE
8
ball_wire - ball_partition
62
20
10
3.948982
20
-2.302944
30
1.406923
11
3.750472
21
-2.010310
31
1.112621
0
LINE
8
ball_wire - ball_partition
62
20
10
3.948982
20
-2.302944
30
1.406923
11
3.663093
21
-2.302944
31
1.562149
0
LINE
8
ball_wire - ball_partition
62
20
10
3.663093
20
-2.302944
30
1.562149
11
3.524386
21
-2.010310
31
1.235376
0
LINE
8
ball_wire - ball_partition
62
20
10
3.663093
20
-2.302944
30
1.562149
11
3.352838
21
-2.302944
31
1.659972
0
LINE
8
ball_wire - ball_partition
62
20
10
3.352838
20
-2.302944
30
1.659972
11
3.279031
21
-2.010310
31
1.312736
0
LINE
8
ball_wire - ball_partition
62
20
10
3.352838
20
-2.302944
30
1.659972
11
3.000000
21
-2.302944
31
1.697056
0
LINE
8
ball_wire - ball_partition
62
20
10
3.000000
20
-2.302944
30
1.697056
11
3.000000
21
-2.010310
31
1.342063
0
LINE
8
ball_wire - ball_partition
62
20
10
3.000000
20
-2.302944
30
1.697056
11
2.676186
21
-2.302944
31
1.665877
0
LINE
8
ball_wire - ball_partition
62
20
10
2.676186
20
-2.302944
30
1.665877
11
2.743922
21
-2.010310
31
1.317406
0
LINE
8
ball_wire - ball_partition
62
20
10
2.676186
20
-2.302944
30
1.665877
11
2.364272
21
-2.302944
31
1.573483
0
LINE
8
ball_wire - ball_partition
62
20
10
2.364272
20
-2.302944
30
1.573483
11
2.497254
21
-2.010310
31
1.244339
0
LINE
8
ball_wire - ball_partition
62
20
10
2.364272
20
-2.302944
30
1.573483
11
2.075717
21
-2.302944
31
1.423271
0
LINE
8
ball_wire - ball_partition
62
20
10
2.075717
20
-2.302944
30
1.423271
11
2.269060
21
-2.010310
31
1.125549
0
LINE
8
ball_wire - ball_partition
62
20
10
2.075717
20
-2.302944
30
1.423271
11
1.800000
21
-2.302944
31
1.200000
0
LINE
8
ball_wire - ball_partition
62
20
10
1.800000
20
-2.302944
30
1.200000
11
2.051018
21
-2.010310
31
0.948982
0
LINE
8
ball_wire - ball_partition
62
20
10
1.800000
20
-2.302944
30
1.200000
11
1.593076
21
-2.302944
31
0.948982
0
LINE
8
ball_wire - ball_partition
62
20
10
1.593076
20
-2.302944
30
0.948982
11
1.887379
21
-2.010310
31
0.750472
0
LINE
8
ball_wire - ball_partition
62
20
10
1.593076
20
-2.302944
30
0.948982
11
1.437852
21
-2.302944
31
0.663093
0
LINE
8
ball_wire - ball_partition
62
20
10
1.437852
20
-2.302944
30
0.663093
11
1.764625
21
-2.010310
31
0.524386
0
LINE
8
ball_wire - ball_partition
62
20
10
1.437852
20
-2.302944
30
0.663093
11
1.340028
21
-2.302944
31
0.352838
0
LINE
8
ball_wire - ball_partition
62
20
10
1.340028
20
-2.302944
30
0.352838
11
1.687264
21
-2.010310
31
0.279030
0
LINE
8
ball_wire - ball_partition
62
20
10
1.340028
20
-2.302944
30
0.352838
11
1.302944
21
-2.302944
31
-0.000000
0
LINE
8
ball_wire - ball_partition
62
20
10
1.302944
20
-2.302944
30
-0.000000
11
1.657937
21
-2.010310
31
-0.000000
0
LINE
8
ball_wire - ball_partition
62
20
10
1.302944
20
-2.302944
30
-0.000000
11
1.334123
21
-2.302944
31
-0.323814
0
LINE
8
ball_wire - ball_partition
62
20
10
1.334123
20
-2.302944
30
-0.323814
11
1.682594
21
-2.010310
31
-0.256078
0
LINE
8
ball_wire - ball_partition
62
20
10
1.334123
20
-2.302944
30
-0.323814
11
1.426517
21
-2.302944
31
-0.635729
0
LINE
8
ball_wire - ball_partition
62
20
10
1.426517
20
-2.302944
30
-0.635729
11
1.755661
21
-2.010310
31
-0.502746
0
LINE
8
ball_wire - ball_partition
62
20
10
1.426517
20
-2.302944
30
-0.635729
11
1.576729
21
-2.302944
31
-0.924283
0
LINE
8
ball_wire - ball_partition
62
20
10
1.576729
20
-2.302944
30
-0.924283
11
1.874451
21
-2.010310
31
-0.730940
0
LINE
8
ball_wire - ball_partition
62
20
10
1.576729
20
-2.302944
30
-0.924283
11
1.800000
21
-2.302944
31
-1.200000
0
LINE
8
ball_wire - ball_partition
62
20
10
1.800000
20
-2.302944
30
-1.200000
11
2.051018
21
-2.010310
31
-0.948982
0
LINE
8
ball_wire - ball_partition
62
20
10
1.800000
20
-2.302944
30
-1.200000
11
2.051018
21
-2.302944
31
-1.406924
0
LINE
8
ball_wire - ball_partition
62
20
10
2.051018
20
-2.302944
30
-1.406924
11
2.249528
21
-2.010310
31
-1.112621
0
LINE
8
ball_wire - ball_partition
62
20
10
2.051018
20
-2.302944
30
-1.406924
11
2.336907
21
-2.302944
31
-1.562148
0
LINE
8
ball_wire - ball_partition
62
20
10
2.336907
20
-2.302944
30
-1.562148
11
2.475614
21
-2.010310
31
-1.235375
0
LINE
8
ball_wire - ball_partition
62
20
10
2.336907
20
-2.302944
30
-1.562148
11
2.647162
21
-2.302944
31
-1.659971
0
LINE
8
ball_wire - ball_partition
62
20
10
2.647162
20
-2.302944
30
-1.659971
11
2.720969
21
-2.010310
31
-1.312736
0
LINE
8
ball_wire - ball_partition
62
20
10
2.647162
20
-2.302944
30
-1.659971
11
3.000000
21
-2.302944
31
-1.697056
0
LINE
8
ball_wire - ball_partition
62
20
10
3.000000
20
-2.302944
30
-1.697056
11
3.000000
21
-2.010310
31
-1.342063
0
LINE
8
ball_wire - ball_partition
62
20
10
3.000000
20
-2.302944
30
-1.697056
11
3.323813
21
-2.302944
31
-1.665877
0
LINE
8
ball_wire - ball_partition
62
20
10
3.323813
20
-2.302944
30
-1.665877
11
3.256078
21
-2.010310
31
-1.317406
0
LINE
8
ball_wire - ball_partition
62
20
10
3.323813
20
-2.302944
30
-1.665877
11
3.635729
21
-2.302944
31
-1.573483
0
LINE
8
ball_wire - ball_partition
62
20
10
3.635729
20
-2.302944
30
-1.573483
11
3.502746
21
-2.010310
31
-1.244339
0
LINE
8
ball_wire - ball_partition
62
20
10
3.635729
20
-2.302944
30
-1.573483
11
3.924283
21
-2.302944
31
-1.423271
0
LINE
8
ball_wire - ball_partition
62
20
10
3.924283
20
-2.302944
30
-1.423271
11
3.730940
21
-2.010310
31
-1.125549
0
LINE
8
ball_wire - ball_partition
62
20
10
3.924283
20
-2.302944
30
-1.423271
11
4.200000
21
-2.302944
31
-1.200000
0
LINE
8
ball_wire - ball_partition
62
20
10
4.200000
20
-2.302944
30
-1.200000
11
3.948982
21
-2.010310
31
-0.948982
0
LINE
8
ball_wire - ball_partition
62
20
10
4.200000
20
-2.302944
30
-1.200000
11
4.406923
21
-2.302944
31
-0.948982
0
LINE
8
ball_wire - ball_partition
62
20
10
4.406923
20
-2.302944
30
-0.948982
11
4.112621
21
-2.010310
31
-0.750472
0
LINE
8
ball_wire - ball_partition
62
20
10
4.406923
20
-2.302944
30
-0.948982
11
4.562149
21
-2.302944
31
-0.663093
0
LINE
8
ball_wire - ball_partition
62
20
10
4.562149
20
-2.302944
30
-0.663093
11
4.235375
21
-2.010310
31
-0.524386
0
LINE
8
ball_wire - ball_partition
62
20
10
4.562149
20
-2.302944
30
-0.663093
11
4.659972
21
-2.302944
31
-0.352838
0
LINE
8
ball_wire - ball_partition
62
20
10
4.659972
20
-2.302944
30
-0.352838
11
4.312736
21
-2.010310
31
-0.279031
0
LINE
8
ball_wire - ball_partition
62
20
10
4.659972
20
-2.302944
30
-0.352838
11
4.697056
21
-2.302944
31
0.000000
0
LINE
8
ball_wire - ball_partition
62
20
10
4.342063
20
-2.010310
30
0.000000
11
3.937755
21
-1.790788
31
0.000000
0
LINE
8
ball_wire - ball_partition
62
20
10
4.342063
20
-2.010310
30
0.000000
11
4.317406
21
-2.010310
31
0.256078
0
LINE
8
ball_wire - ball_partition
62
20
10
4.317406
20
-2.010310
30
0.256078
11
3.920526
21
-1.790788
31
0.178932
0
LINE
8
ball_wire - ball_partition
62
20
10
4.317406
20
-2.010310
30
0.256078
11
4.244339
21
-2.010310
31
0.502746
0
LINE
8
ball_wire - ball_partition
62
20
10
4.244339
20
-2.010310
30
0.502746
11
3.869471
21
-1.790788
31
0.351289
0
LINE
8
ball_wire - ball_partition
62
20
10
4.244339
20
-2.010310
30
0.502746
11
4.125549
21
-2.010310
31
0.730940
0
LINE
8
ball_wire - ball_partition
62
20
10
4.125549
20
-2.010310
30
0.730940
11
3.786467
21
-1.790788
31
0.510738
0
LINE
8
ball_wire - ball_partition
62
20
10
4.125549
20
-2.010310
30
0.730940
11
3.948982
21
-2.010310
31
0.948982
0
LINE
8
ball_wire - ball_partition
62
20
10
3.948982
20
-2.010310
30
0.948982
11
3.663093
21
-1.790788
31
0.663093
0
LINE
8
ball_wire - ball_partition
62
20
10
3.948982
20
-2.010310
30
0.948982
11
3.750472
21
-2.010310
31
1.112621
0
LINE
8
ball_wire - ball_partition
62
20
10
3.750472
20
-2.010310
30
1.112621
11
3.524386
21
-1.790788
31
0.777434
0
LINE
8
ball_wire - ball_partition
62
20
10
3.750472
20
-2.010310
30
1.112621
11
3.524386
21
-2.010310
31
1.235376
0
LINE
8
ball_wire - ball_partition
62
20
10
3.524386
20
-2.010310
30
1.235376
11
3.366410
21
-1.790788
31
0.863208
0
LINE
8
ball_wire - ball_partition
62
20
10
3.524386
20
-2.010310
30
1.235376
11
3.279031
21
-2.010310
31
1.312736
0
LINE
8
ball_wire - ball_partition
62
20
10
3.279031
20
-2.010310
30
1.312736
11
3.194970
21
-1.790788
31
0.917262
0
LINE
8
ball_wire - ball_partition
62
20
10
3.279031
20
-2.010310
30
1.312736
11
3.000000
21
-2.010310
31
1.342063
0
LINE
8
ball_wire - ball_partition
62
20
10
3.000000
20
-2.010310
30
1.342063
11
3.000000
21
-1.790788
31
0.937755
0
LINE
8
ball_wire - ball_partition
62
20
10
3.000000
20
-2.010310
30
1.342063
11
2.743922
21
-2.010310
31
1.317406
0
LINE
8
ball_wire - ball_partition
62
20
10
2.743922
20
-2.010310
30
1.317406
11
2.821068
21
-1.790788
31
0.920525
0
LINE
8
ball_wire - ball_partition
62
20
10
2.743922
20
-2.010310
30
1.317406
11
2.497254
21
-2.010310
31
1.244339
0
LINE
8
ball_wire - ball_partition
62
20
10
2.497254
20
-2.010310
30
1.244339
11
2.648711
21
-1.790788
31
0.869471
0
LINE
8
ball_wire - ball_partition
62
20
10
2.497254
20
-2.010310
30
1.244339
11
2.269060
21
-2.010310
31
1.125549
0
LINE
8
ball_wire - ball_partition
62
20
10
2.269060
20
-2.010310
30
1.125549
11
2.489262
21
-1.790788
31
0.786467
0
LINE
8
ball_wire - ball_partition
62
20
10
2.269060
20
-2.010310
30
1.125549
11
2.051018
21
-2.010310
31
0.948982
0
LINE
8
ball_wire - ball_partition
62
20
10
2.051018
20
-2.010310
30
0.948982
11
2.336907
21
-1.790788
31
0.663093
0
LINE
8
ball_wire - ball_partition
62
20
10
2.051018
20
-2.010310
30
0.948982
11
1.887379
21
-2.010310
31
0.750472
0
LINE
8
ball_wire - ball_partition
62
20
10
1.887379
20
-2.010310
30
0.750472
11
2.222566
21
-1.790788
31
0.524386
0
LINE
8
ball_wire - ball_partition
62
20
10
1.887379
20
-2.010310
30
0.750472
11
1.764625
21
-2.010310
31
0.524386
0
LINE
8
ball_wire - ball_partition
62
20
10
1.764625
20
-2.010310
30
0.524386
11
2.136792
21
-1.790788
31
0.366410
0
LINE
8
ball_wire - ball_partition
62
20
10
1.764625
20
-2.010310
30
0.524386
11
1.687264
21
-2.010310
31
0.279030
0
LINE
8
ball_wire - ball_partition
62
20
10
1.687264
20
-2.010310
30
0.279030
11
2.082737
21
-1.790788
31
0.194970
0
LINE
8
ball_wire - ball_partition
62
20
10
1.687264
20
-2.010310
30
0.279030
11
1.657937
21
-2.010310
31
-0.000000
0
LINE
8
ball_wire - ball_partition
62
20
10
1.657937
20
-2.010310
30
-0.000000
11
2.062245
21
-1.790788
31
-0.000000
0
LINE
8
ball_wire - ball_partition
62
20
10
1.657937
20
-2.010310
30
-0.000000
11
1.682594
21
-2.010310
31
-0.256078
0
LINE
8
ball_wire - ball_partition
62
20
10
1.682594
20
-2.010310
30
-0.256078
11
2.079474
21
-1.790788
31
-0.178932
0
LINE
8
ball_wire - ball_partition
62
20
10
1.682594
20
-2.010310
30
-0.256078
11
1.755661
21
-2.010310
31
-0.502746
0
LINE
8
ball_wire - ball_partition
62
20
10
1.755661
20
-2.010310
30
-0.502746
11
2.130529
21
-1.790788
31
-0.351289
0
LINE
8
ball_wire - ball_partition
62
20
10
1.755661
20
-2.010310
30
-0.502746
11
1.874451
21
-2.010310
31
-0.730940
0
LINE
8
ball_wire - ball_partition
62
20
10
1.874451
20
-2.010310
30
-0.730940
11
2.213533
21
-1.790788
31
-0.510738
0
LINE
8
ball_wire - ball_partition
62
20
10
1.874451
20
-2.010310
30
-0.730940
11
2.051018
21
-2.010310
31
-0.948982
0
LINE
8
ball_wire - ball_partition
62
20
10
2.051018
20
-2.010310
30
-0.948982
11
2.336907
21
-1.790788
31
-0.663093
0
LINE
8
ball_wire - ball_partition
62
20
10
2.051018
20
-2.010310
30
-0.948982
11
2.249528
21
-2.010310
31
-1.112621
0
LINE
8
ball_wire - ball_partition
62
20
10
2.249528
20
-2.010310
30
-1.112621
11
2.475614
21
-1.790788
31
-0.777434
0
LINE
8
ball_wire - ball_partition
62
20
10
2.249528
20
-2.010310
30
-1.112621
11
2.475614
21
-2.010310
31
-1.235375
0
LINE
8
ball_wire - ball_partition
62
20
10
2.475614
20
-2.010310
30
-1.235375
11
2.633590
21
-1.790788
31
-0.863208
0
LINE
8
ball_wire - ball_partition
62
20
10
2.475614
20
-2.010310
30
-1.235375
11
2.720969
21
-2.010310
31
-1.312736
0
LINE
8
ball_wire - ball_partition
62
20
10
2.720969
20
-2.010310
30
-1.312736
11
2.805030
21
-1.790788
31
-0.917262
0
LINE
8
ball_wire - ball_partition
62
20
10
2.720969
20
-2.010310
30
-1.312736
11
3.000000
21
-2.010310
31
-1.342063
0
LINE
8
ball_wire - ball_partition
62
20
10
3.000000
20
-2.010310
30
-1.342063
11
3.000000
21
-1.790788
31
-0.937755
0
LINE
8
ball_wire - ball_partition
62
20
10
3.000000
20
-2.010310
30
-1.342063
11
3.256078
21
-2.010310
31
-1.317406
0
LINE
8
ball_wire - ball_partition
62
20
10
3.256078
20
-2.010310
30
-1.317406
11
3.178932
21
-1.790788
31
-0.920525
0
LINE
8
ball_wire - ball_partition
62
20
10
3.256078
20
-2.010310
30
-1.317406
11
3.502746
21
-2.010310
31
-1.244339
0
LINE
8
ball_wire - ball_partition
62
20
10
3.502746
20
-2.010310
30
-1.244339
11
3.351289
21
-1.790788
31
-0.869471
0
LINE
8
ball_wire - ball_partition
62
20
10
3.502746
20
-2.010310
30
-1.244339
11
3.730940
21
-2.010310
31
-1.125549
0
LINE
8
ball_wire - ball_partition
62
20
10
3.730940
20
-2.010310
30
-1.125549
11
3.510738
21
-1.790788
31
-0.786467
0
LINE
8
ball_wire - ball_partition
62
20
10
3.730940
20
-2.010310
30
-1.125549
11
3.948982
21
-2.010310
31
-0.948982
0
LINE
8
ball_wire - ball_partition
62
20
10
3.948982
20
-2.010310
30
-0.948982
11
3.663093
21
-1.790788
31
-0.663093
0
LINE
8
ball_wire - ball_partition
62
20
10
3.948982
20
-2.010310
30
-0.948982
11
4.112621
21
-2.010310
31
-0.750472
0
LINE
8
ball_wire - ball_partition
62
20
10
4.112621
20
-2.010310
30
-0.750472
11
3.777434
21
-1.790788
31
-0.524386
0
LINE
8
ball_wire - ball_partition
62
20
10
4.112621
20
-2.010310
30
-0.750472
11
4.235375
21
-2.010310
31
-0.524386
0
LINE
8
ball_wire - ball_partition
62
20
10
4.235375
20
-2.010310
30
-0.524386
11
3.863208
21
-1.790788
31
-0.366410
0
LINE
8
ball_wire - ball_partition
62
20
10
4.235375
20
-2.010310
30
-0.524386
11
4.312736
21
-2.010310
31
-0.279031
0
LINE
8
ball_wire - ball_partition
62
20
10
4.312736
20
-2.010310
30
-0.279031
11
3.917263
21
-1.790788
31
-0.194970
0
LINE
8
ball_wire - ball_partition
62
20
10
4.312736
20
-2.010310
30
-0.279031
11
4.342063
21
-2.010310
31
0.000000
0
LINE
8
ball_wire - ball_partition
62
20
10
3.937755
20
-1.790788
30
0.000000
11
3.498988
21
-1.652446
31
0.000000
0
LINE
8
ball_wire - ball_partition
62
20
10
3.937755
20
-1.790788
30
0.000000
11
3.920526
21
-1.790788
31
0.178932
0
LINE
8
ball_wire - ball_partition
62
20
10
3.920526
20
-1.790788
30
0.178932
11
3.489820
21
-1.652446
31
0.095211
0
LINE
8
ball_wire - ball_partition
62
20
10
3.920526
20
-1.790788
30
0.178932
11
3.869471
21
-1.790788
31
0.351289
0
LINE
8
ball_wire - ball_partition
62
20
10
3.869471
20
-1.790788
30
0.351289
11
3.462654
21
-1.652446
31
0.186924
0
LINE
8
ball_wire - ball_partition
62
20
10
3.869471
20
-1.790788
30
0.351289
11
3.786467
21
-1.790788
31
0.510738
0
LINE
8
ball_wire - ball_partition
62
20
10
3.786467
20
-1.790788
30
0.510738
11
3.418487
21
-1.652446
31
0.271768
0
LINE
8
ball_wire - ball_partition
62
20
10
3.786467
20
-1.790788
30
0.510738
11
3.663093
21
-1.790788
31
0.663093
0
LINE
8
ball_wire - ball_partition
62
20
10
3.663093
20
-1.790788
30
0.663093
11
3.352838
21
-1.652446
31
0.352838
0
LINE
8
ball_wire - ball_partition
62
20
10
3.663093
20
-1.790788
30
0.663093
11
3.524386
21
-1.790788
31
0.777434
0
LINE
8
ball_wire - ball_partition
62
20
10
3.524386
20
-1.790788
30
0.777434
11
3.279031
21
-1.652446
31
0.413680
0
LINE
8
ball_wire - ball_partition
62
20
10
3.524386
20
-1.790788
30
0.777434
11
3.366410
21
-1.790788
31
0.863208
0
LINE
8
ball_wire - ball_partition
62
20
10
3.366410
20
-1.790788
30
0.863208
11
3.194970
21
-1.652446
31
0.459321
0
LINE
8
ball_wire - ball_partition
62
20
10
3.366410
20
-1.790788
30
0.863208
11
3.194970
21
-1.790788
31
0.917262
0
LINE
8
ball_wire - ball_partition
62
20
10
3.194970
20
-1.790788
30
0.917262
11
3.103745
21
-1.652446
31
0.488084
0
LINE
8
ball_wire - ball_partition
62
20
10
3.194970
20
-1.790788
30
0.917262
11
3.000000
21
-1.790788
31
0.937755
0
LINE
8
ball_wire - ball_partition
62
20
10
3.000000
20
-1.790788
30
0.937755
11
3.000000
21
-1.652446
31
0.498988
0
LINE
8
ball_wire - ball_partition
62
20
10
3.000000
20
-1.790788
30
0.937755
11
2.821068
21
-1.790788
31
0.920525
0
LINE
8
ball_wire - ball_partition
62
20
10
2.821068
20
-1.790788
30
0.920525
11
2.904788
21
-1.652446
31
0.489820
0
LINE
8
ball_wire - ball_partition
62
20
10
2.821068
20
-1.790788
30
0.920525
11
2.648711
21
-1.790788
31
0.869471
0
LINE
8
ball_wire - ball_partition
62
20
10
2.648711
20
-1.790788
30
0.869471
11
2.813076
21
-1.652446
31
0.462654
0
LINE
8
ball_wire - ball_partition
62
20
10
2.648711
20
-1.790788
30
0.869471
11
2.489262
21
-1.790788
31
0.786467
0
LINE
8
ball_wire - ball_partition
62
20
10
2.489262
20
-1.790788
30
0.786467
11
2.728232
21
-1.652446
31
0.418487
0
LINE
8
ball_wire - ball_partition
62
20
10
2.489262
20
-1.790788
30
0.786467
11
2.336907
21
-1.790788
31
0.663093
0
LINE
8
ball_wire - ball_partition
62
20
10
2.336907
20
-1.790788
30
0.663093
11
2.647162
21
-1.652446
31
0.352838
0
LINE
8
ball_wire - ball_partition
62
20
10
2.336907
20
-1.790788
30
0.663093
11
2.222566
21
-1.790788
31
0.524386
0
LINE
8
ball_wire - ball_partition
62
20
10
2.222566
20
-1.790788
30
0.524386
11
2.586320
21
-1.652446
31
0.279031
0
LINE
8
ball_wire - ball_partition
62
20
10
2.222566
20
-1.790788
30
0.524386
11
2.136792
21
-1.790788
31
0.366410
0
LINE
8
ball_wire - ball_partition
62
20
10
2.136792
20
-1.790788
30
0.366410
11
2.540679
21
-1.652446
31
0.194970
0
LINE
8
ball_wire - ball_partition
62
20
10
2.136792
20
-1.790788
30
0.366410
11
2.082737
21
-1.790788
31
0.194970
0
LINE
8
ball_wire - ball_partition
62
20
10
2.082737
20
-1.790788
30
0.194970
11
2.511916
21
-1.652446
31
0.103745
0
LINE
8
ball_wire - ball_partition
62
20
10
2.082737
20
-1.790788
30
0.194970
11
2.062245
21
-1.790788
31
-0.000000
0
LINE
8
ball_wire - ball_partition
62
20
10
2.062245
20
-1.790788
30
-0.000000
11
2.501012
21
-1.652446
31
-0.000000
0
LINE
8
ball_wire - ball_partition
62
20
10
2.062245
20
-1.790788
30
-0.000000
11
2.079474
21
-1.790788
31
-0.178932
0
LINE
8
ball_wire - ball_partition
62
20
10
2.079474
20
-1.790788
30
-0.178932
11
2.510180
21
-1.652446
31
-0.095211
0
LINE
8
ball_wire - ball_partition
62
20
10
2.079474
20
-1.790788
30
-0.178932
11
2.130529
21
-1.790788
31
-0.351289
0
LINE
8
ball_wire - ball_partition
62
20
10
2.130529
20
-1.790788
30
-0.351289
11
2.537346
21
-1.652446
31
-0.186924
0
LINE
8
ball_wire - ball_partition
62
20
10
2.130529
20
-1.790788
30
-0.351289
11
2.213533
21
-1.790788
31
-0.510738
0
LINE
8
ball_wire - ball_partition
62
20
10
2.213533
20
-1.790788
30
-0.510738
11
2.581513
21
-1.652446
31
-0.271768
0
LINE
8
ball_wire - ball_partition
62
20
10
2.213533
20
-1.790788
30
-0.510738
11
2.336907
21
-1.790788
31
-0.663093
0
LINE
8
ball_wire - ball_partition
62
20
10
2.336907
20
-1.790788
30
-0.663093
11
2.647162
21
-1.652446
31
-0.352838
0
LINE
8
ball_wire - ball_partition
62
20
10
2.336907
20
-1.790788
30
-0.663093
11
2.475614
21
-1.790788
31
-0.777434
0
LINE
8
ball_wire - ball_partition
62
20
10
2.475614
20
-1.790788
30
-0.777434
11
2.720969
21
-1.652446
31
-0.413680
0
LINE
8
ball_wire - ball_partition
62
20
10
2.475614
20
-1.790788
30
-0.777434
11
2.633590
21
-1.790788
31
-0.863208
0
LINE
8
ball_wire - ball_partition
62
20
10
2.633590
20
-1.790788
30
-0.863208
11
2.805030
21
-1.652446
31
-0.459321
0
LINE
8
ball_wire - ball_partition
62
20
10
2.633590
20
-1.790788
30
-0.863208
11
2.805030
21
-1.790788
31
-0.917262
0
LINE
8
ball_wire - ball_partition
62
20
10
2.805030
20
-1.790788
30
-0.917262
11
2.896255
21
-1.652446
31
-0.488084
0
LINE
8
ball_wire - ball_partition
62
20
10
2.805030
20
-1.790788
30
-0.917262
11
3.000000
21
-1.790788
31
-0.937755
0
LINE
8
ball_wire - ball_partition
62
20
10
3.000000
20
-1.790788
30
-0.937755
11
3.000000
21
-1.652446
31
-0.498988
0
LINE
8
ball_wire - ball_partition
62
20
10
3.000000
20
-1.790788
30
-0.937755
11
3.178932
21
-1.790788
31
-0.920525
0
LINE
8
ball_wire - ball_partition
62
20
10
3.178932
20
-1.790788
30
-0.920525
11
3.095211
21
-1.652446
31
-0.489820
0
LINE
8
ball_wire - ball_partition
62
20
10
3.178932
20
-1.790788
30
-0.920525
11
3.351289
21
-1.790788
31
-0.869471
0
LINE
8
ball_wire - ball_partition
62
20
10
3.351289
20
-1.790788
30
-0.869471
11
3.186924
21
-1.652446
31
-0.462654
0
LINE
8
ball_wire - ball_partition
62
20
10
3.351289
20
-1.790788
30
-0.869471
11
3.510738
21
-1.790788
31
-0.786467
0
LINE
8
ball_wire - ball_partition
62
20
10
3.510738
20
-1.790788
30
-0.786467
11
3.271768
21
-1.652446
31
-0.418487
0
LINE
8
ball_wire - ball_partition
62
20
10
3.510738
20
-1.790788
30
-0.786467
11
3.663093
21
-1.790788
31
-0.663093
0
LINE
8
ball_wire - ball_partition
62
20
10
3.663093
20
-1.790788
30
-0.663093
11
3.352838
21
-1.652446
31
-0.352838
0
LINE
8
ball_wire - ball_partition
62
20
10
3.663093
20
-1.790788
30
-0.663093
11
3.777434
21
-1.790788
31
-0.524386
0
LINE
8
ball_wire - ball_partition
62
20
10
3.777434
20
-1.790788
30
-0.524386
11
3.413680
21
-1.652446
31
-0.279030
0
LINE
8
ball_wire - ball_partition
62
20
10
3.777434
20
-1.790788
30
-0.524386
11
3.863208
21
-1.790788
31
-0.366410
0
LINE
8
ball_wire - ball_partition
62
20
10
3.863208
20
-1.790788
30
-0.366410
11
3.459321
21
-1.652446
31
-0.194970
0
LINE
8
ball_wire - ball_partition
62
20
10
3.863208
20
-1.790788
30
-0.366410
11
3.917263
21
-1.790788
31
-0.194970
0
LINE
8
ball_wire - ball_partition
62
20
10
3.917263
20
-1.790788
30
-0.194970
11
3.488084
21
-1.652446
31
-0.103745
0
LINE
8
ball_wire - ball_partition
62
20
10
3.917263
20
-1.790788
30
-0.194970
11
3.937755
21
-1.790788
31
0.000000
0
LINE
8
ball_wire - ball_partition
62
20
10
3.000000
20
-1.600000
30
0.000000
11
3.498988
21
-1.652446
31
0.000000
0
LINE
8
ball_wire - ball_partition
62
20
10
3.498988
20
-1.652446
30
0.000000
11
3.489820
21
-1.652446
31
0.095211
0
LINE
8
ball_wire - ball_partition
62
20
10
3.000000
20
-1.600000
30
0.000000
11
3.489820
21
-1.652446
31
0.095211
0
LINE
8
ball_wire - ball_partition
62
20
10
3.489820
20
-1.652446
30
0.095211
11
3.462654
21
-1.652446
31
0.186924
0
LINE
8
ball_wire - ball_partition
62
20
10
3.000000
20
-1.600000
30
0.000000
11
3.462654
21
-1.652446
31
0.186924
0
LINE
8
ball_wire - ball_partition
62
20
10
3.462654
20
-1.652446
30
0.186924
11
3.418487
21
-1.652446
31
0.271768
0
LINE
8
ball_wire - ball_partition
62
20
10
3.000000
20
-1.600000
30
0.000000
11
3.418487
21
-1.652446
31
0.271768
0
LINE
8
ball_wire - ball_partition
62
20
10
3.418487
20
-1.652446
30
0.271768
11
3.352838
21
-1.652446
31
0.352838
0
LINE
8
ball_wire - ball_partition
62
20
10
3.000000
20
-1.600000
30
0.000000
11
3.352838
21
-1.652446
31
0.352838
0
LINE
8
ball_wire - ball_partition
62
20
10
3.352838
20
-1.652446
30
0.352838
11
3.279031
21
-1.652446
31
0.413680
0
LINE
8
ball_wire - ball_partition
62
20
10
3.000000
20
-1.600000
30
0.000000
11
3.279031
21
-1.652446
31
0.413680
0
LINE
8
ball_wire - ball_partition
62
20
10
3.279031
20
-1.652446
30
0.413680
11
3.194970
21
-1.652446
31
0.459321
0
LINE
8
ball_wire - ball_partition
62
20
10
3.000000
20
-1.600000
30
0.000000
11
3.194970
21
-1.652446
31
0.459321
0
LINE
8
ball_wire - ball_partition
62
20
10
3.194970
20
-1.652446
30
0.459321
11
3.103745
21
-1.652446
31
0.488084
0
LINE
8
ball_wire - ball_partition
62
20
10
3.000000
20
-1.600000
30
0.000000
11
3.103745
21
-1.652446
31
0.488084
0
LINE
8
ball_wire - ball_partition
62
20
10
3.103745
20
-1.652446
30
0.488084
11
3.000000
21
-1.652446
31
0.498988
0
LINE
8
ball_wire - ball_partition
62
20
10
3.000000
20
-1.600000
30
0.000000
11
3.000000
21
-1.652446
31
0.498988
0
LINE
8
ball_wire - ball_partition
62
20
10
3.000000
20
-1.652446
30
0.498988
11
2.904788
21
-1.652446
31
0.489820
0
LINE
8
ball_wire - ball_partition
62
20
10
3.000000
20
-1.600000
30
0.000000
11
2.904788
21
-1.652446
31
0.489820
0
LINE
8
ball_wire - ball_partition
62
20
10
2.904788
20
-1.652446
30
0.489820
11
2.813076
21
-1.652446
31
0.462654
0
LINE
8
ball_wire - ball_partition
62
20
10
3.000000
20
-1.600000
30
0.000000
11
2.813076
21
-1.652446
31
0.462654
0
LINE
8
ball_wire - ball_partition
62
20
10
2.813076
20
-1.652446
30
0.462654
11
2.728232
21
-1.652446
31
0.418487
0
LINE
8
ball_wire - ball_partition
62
20
10
3.000000
20
-1.600000
30
0.000000
11
2.728232
21
-1.652446
31
0.418487
0
LINE
8
ball_wire - ball_partition
62
20
10
2.728232
20
-1.652446
30
0.418487
11
2.647162
21
-1.652446
31
0.352838
0
LINE
8
ball_wire - ball_partition
62
20
10
3.000000
20
-1.600000
30
0.000000
11
2.647162
21
-1.652446
31
0.352838
0
LINE
8
ball_wire - ball_partition
62
20
10
2.647162
20
-1.652446
30
0.352838
11
2.586320
21
-1.652446
31
0.279031
0
LINE
8
ball_wire - ball_partition
62
20
10
3.000000
20
-1.600000
30
0.000000
11
2.586320
21
-1.652446
31
0.279031
0
LINE
8
ball_wire - ball_partition
62
20
10
2.586320
20
-1.652446
30
0.279031
11
2.540679
21
-1.652446
31
0.194970
0
LINE
8
ball_wire - ball_partition
62
20
10
3.000000
20
-1.600000
30
0.000000
11
2.540679
21
-1.652446
31
0.194970
0
LINE
8
ball_wire - ball_partition
62
20
10
2.540679
20
-1.652446
30
0.194970
11
2.511916
21
-1.652446
31
0.103745
0
LINE
8
ball_wire - ball_partition
62
20
10
3.000000
20
-1.600000
30
0.000000
11
2.511916
21
-1.652446
31
0.103745
0
LINE
8
ball_wire - ball_partition
62
20
10
2.511916
20
-1.652446
30
0.103745
11
2.501012
21
-1.652446
31
-0.000000
0
LINE
8
ball_wire - ball_partition
62
20
10
3.000000
20
-1.600000
30
0.000000
11
2.501012
21
-1.652446
31
-0.000000
0
LINE
8
ball_wire - ball_partition
62
20
10
2.501012
20
-1.652446
30
-0.000000
11
2.510180
21
-1.652446
31
-0.095211
0
LINE
8
ball_wire - ball_partition
62
20
10
3.000000
20
-1.600000
30
0.000000
11
2.510180
21
-1.652446
31
-0.095211
0
LINE
8
ball_wire - ball_partition
62
20
10
2.510180
20
-1.652446
30
-0.095211
11
2.537346
21
-1.652446
31
-0.186924
0
LINE
8
ball_wire - ball_partition
62
20
10
3.000000
20
-1.600000
30
0.000000
11
2.537346
21
-1.652446
31
-0.186924
0
LINE
8
ball_wire - ball_partition
62
20
10
2.537346
20
-1.652446
30
-0.186924
11
2.581513
21
-1.652446
31
-0.271768
0
LINE
8
ball_wire - ball_partition
62
20
10
3.000000
20
-1.600000
30
0.000000
11
2.581513
21
-1.652446
31
-0.271768
0
LINE
8
ball_wire - ball_partition
62
20
10
2.581513
20
-1.652446
30
-0.271768
11
2.647162
21
-1.652446
31
-0.352838
0
LINE
8
ball_wire - ball_partition
62
20
10
3.000000
20
-1.600000
30
0.000000
11
2.647162
21
-1.652446
31
-0.352838
0
LINE
8
ball_wire - ball_partition
62
20
10
2.647162
20
-1.652446
30
-0.352838
11
2.720969
21
-1.652446
31
-0.413680
0
LINE
8
ball_wire - ball_partition
62
20
10
3.000000
20
-1.600000
30
0.000000
11
2.720969
21
-1.652446
31
-0.413680
0
LINE
8
ball_wire - ball_partition
62
20
10
2.720969
20
-1.652446
30
-0.413680
11
2.805030
21
-1.652446
31
-0.459321
0
LINE
8
ball_wire - ball_partition
62
20
10
3.000000
20
-1.600000
30
0.000000
11
2.805030
21
-1.652446
31
-0.459321
0
LINE
8
ball_wire - ball_partition
62
20
10
2.805030
20
-1.652446
30
-0.459321
11
2.896255
21
-1.652446
31
-0.488084
0
LINE
8
ball_wire - ball_partition
62
20
10
3.000000
20
-1.600000
30
0.000000
11
2.896255
21
-1.652446
31
-0.488084
0
LINE
8
ball_wire - ball_partition
62
20
10
2.896255
20
-1.652446
30
-0.488084
11
3.000000
21
-1.652446
31
-0.498988
0
LINE
8
ball_wire - ball_partition
62
20
10
3.000000
20
-1.600000
30
0.000000
11
3.000000
21
-1.652446
31
-0.498988
0
LINE
8
ball_wire - ball_partition
62
20
10
3.000000
20
-1.652446
30
-0.498988
11
3.095211
21
-1.652446
31
-0.489820
0
LINE
8
ball_wire - ball_partition
62
20
10
3.000000
20
-1.600000
30
0.000000
11
3.095211
21
-1.652446
31
-0.489820
0
LINE
8
ball_wire - ball_partition
62
20
10
3.095211
20
-1.652446
30
-0.489820
11
3.186924
21
-1.652446
31
-0.462654
0
LINE
8
ball_wire - ball_partition
62
20
10
3.000000
20
-1.600000
30
0.000000
11
3.186924
21
-1.652446
31
-0.462654
0
LINE
8
ball_wire - ball_partition
62
20
10
3.186924
20
-1.652446
30
-0.462654
11
3.271768
21
-1.652446
31
-0.418487
0
LINE
8
ball_wire - ball_partition
62
20
10
3.000000
20
-1.600000
30
0.000000
11
3.271768
21
-1.652446
31
-0.418487
0
LINE
8
ball_wire - ball_partition
62
20
10
3.271768
20
-1.652446
30
-0.418487
11
3.352838
21
-1.652446
31
-0.352838
0
LINE
8
ball_wire - ball_partition
62
20
10
3.000000
20
-1.600000
30
0.000000
11
3.352838
21
-1.652446
31
-0.352838
0
LINE
8
ball_wire - ball_partition
62
20
10
3.352838
20
-1.652446
30
-0.352838
11
3.413680
21
-1.652446
31
-0.279030
0
LINE
8
ball_wire - ball_partition
62
20
10
3.000000
20
-1.600000
30
0.000000
11
3.413680
21
-1.652446
31
-0.279030
0
LINE
8
ball_wire - ball_partition
62
20
10
3.413680
20
-1.652446
30
-0.279030
11
3.459321
21
-1.652446
31
-0.194970
0
LINE
8
ball_wire - ball_partition
62
20
10
3.000000
20
-1.600000
30
0.000000
11
3.459321
21
-1.652446
31
-0.194970
0
LINE
8
ball_wire - ball_partition
62
20
10
3.459321
20
-1.652446
30
-0.194970
11
3.488084
21
-1.652446
31
-0.103745
0
LINE
8
ball_wire - ball_partition
62
20
10
3.000000
20
-1.600000
30
0.000000
11
3.488084
21
-1.652446
31
-0.103745
0
LINE
8
ball_wire - ball_partition
62
20
10
3.488084
20
-1.652446
30
-0.103745
11
3.498988
21
-1.652446
31
0.000000
  0
ENDSEC
 0
EOF
