0
SECTION
2
ENTITIES
999
Created by Tiny3D
0
LINE
8
P - playing_music
62
10
10
-5.500000
20
6.000000
30
0.000000
11
-5.500000
21
2.000000
31
0.000000
0
LINE
8
P - playing_music
62
10
10
-5.500000
20
6.000000
30
0.000000
11
-4.500000
21
6.000000
31
0.000000
0
LINE
8
P - playing_music
62
10
10
-5.500000
20
4.000000
30
0.000000
11
-4.470000
21
4.000000
31
0.000000
0
LINE
8
P - playing_music
62
10
10
-4.500000
20
6.000000
30
0.000000
11
-4.401983
21
5.995185
31
0.000000
0
LINE
8
P - playing_music
62
10
10
-4.401983
20
5.995185
30
0.000000
11
-4.304910
21
5.980785
31
0.000000
0
LINE
8
P - playing_music
62
10
10
-4.304910
20
5.980785
30
0.000000
11
-4.209715
21
5.956941
31
0.000000
0
LINE
8
P - playing_music
62
10
10
-4.209715
20
5.956941
30
0.000000
11
-4.117317
21
5.923880
31
0.000000
0
LINE
8
P - playing_music
62
10
10
-4.117317
20
5.923880
30
0.000000
11
-4.028603
21
5.881921
31
0.000000
0
LINE
8
P - playing_music
62
10
10
-4.028603
20
5.881921
30
0.000000
11
-3.944430
21
5.831470
31
0.000000
0
LINE
8
P - playing_music
62
10
10
-3.944430
20
5.831470
30
0.000000
11
-3.865607
21
5.773010
31
0.000000
0
LINE
8
P - playing_music
62
10
10
-3.865607
20
5.773010
30
0.000000
11
-3.792893
21
5.707107
31
0.000000
0
LINE
8
P - playing_music
62
10
10
-3.792893
20
5.707107
30
0.000000
11
-3.726990
21
5.634393
31
-0.000000
0
LINE
8
P - playing_music
62
10
10
-3.726990
20
5.634393
30
-0.000000
11
-3.668530
21
5.555570
31
-0.000000
0
LINE
8
P - playing_music
62
10
10
-3.668530
20
5.555570
30
-0.000000
11
-3.618079
21
5.471397
31
-0.000000
0
LINE
8
P - playing_music
62
10
10
-3.618079
20
5.471397
30
-0.000000
11
-3.576120
21
5.382683
31
-0.000000
0
LINE
8
P - playing_music
62
10
10
-3.576120
20
5.382683
30
-0.000000
11
-3.543060
21
5.290285
31
-0.000000
0
LINE
8
P - playing_music
62
10
10
-3.543060
20
5.290285
30
-0.000000
11
-3.519215
21
5.195090
31
-0.000000
0
LINE
8
P - playing_music
62
10
10
-3.519215
20
5.195090
30
-0.000000
11
-3.504815
21
5.098017
31
-0.000000
0
LINE
8
P - playing_music
62
10
10
-3.504815
20
5.098017
30
-0.000000
11
-3.500000
21
5.000000
31
-0.000000
0
LINE
8
P - playing_music
62
10
10
-3.500000
20
5.000000
30
-0.000000
11
-3.504815
21
4.901983
31
-0.000000
0
LINE
8
P - playing_music
62
10
10
-3.504815
20
4.901983
30
-0.000000
11
-3.519215
21
4.804910
31
-0.000000
0
LINE
8
P - playing_music
62
10
10
-3.519215
20
4.804910
30
-0.000000
11
-3.543060
21
4.709715
31
-0.000000
0
LINE
8
P - playing_music
62
10
10
-3.543060
20
4.709715
30
-0.000000
11
-3.576120
21
4.617317
31
-0.000000
0
LINE
8
P - playing_music
62
10
10
-3.576120
20
4.617317
30
-0.000000
11
-3.618079
21
4.528604
31
-0.000000
0
LINE
8
P - playing_music
62
10
10
-3.618079
20
4.528604
30
-0.000000
11
-3.668530
21
4.444430
31
-0.000000
0
LINE
8
P - playing_music
62
10
10
-3.668530
20
4.444430
30
-0.000000
11
-3.726990
21
4.365607
31
-0.000000
0
LINE
8
P - playing_music
62
10
10
-3.726990
20
4.365607
30
-0.000000
11
-3.792893
21
4.292893
31
-0.000000
0
LINE
8
P - playing_music
62
10
10
-3.792893
20
4.292893
30
-0.000000
11
-3.865607
21
4.226990
31
-0.000000
0
LINE
8
P - playing_music
62
10
10
-3.865607
20
4.226990
30
-0.000000
11
-3.944430
21
4.168530
31
-0.000000
0
LINE
8
P - playing_music
62
10
10
-3.944430
20
4.168530
30
-0.000000
11
-4.028603
21
4.118079
31
-0.000000
0
LINE
8
P - playing_music
62
10
10
-4.028603
20
4.118079
30
-0.000000
11
-4.117316
21
4.076120
31
-0.000000
0
LINE
8
P - playing_music
62
10
10
-4.117316
20
4.076120
30
-0.000000
11
-4.209715
21
4.043060
31
-0.000000
0
LINE
8
P - playing_music
62
10
10
-4.209715
20
4.043060
30
-0.000000
11
-4.304910
21
4.019215
31
-0.000000
0
LINE
8
P - playing_music
62
10
10
-4.304910
20
4.019215
30
-0.000000
11
-4.401983
21
4.004815
31
-0.000000
0
LINE
8
P - playing_music
62
10
10
-4.401983
20
4.004815
30
-0.000000
11
-4.500000
21
4.000000
31
-0.000000
0
LINE
8
L - playing_music
62
20
10
-2.500000
20
6.000000
30
0.000000
11
-2.500000
21
2.000000
31
0.000000
0
LINE
8
L - playing_music
62
20
10
-2.500000
20
2.000000
30
0.000000
11
-0.500000
21
2.000000
31
0.000000
0
LINE
8
A - playing_music
62
30
10
2.500000
20
5.000000
30
0.000000
11
2.495185
21
5.098017
31
0.000000
0
LINE
8
A - playing_music
62
30
10
2.495185
20
5.098017
30
0.000000
11
2.480785
21
5.195090
31
0.000000
0
LINE
8
A - playing_music
62
30
10
2.480785
20
5.195090
30
0.000000
11
2.456940
21
5.290285
31
0.000000
0
LINE
8
A - playing_music
62
30
10
2.456940
20
5.290285
30
0.000000
11
2.423880
21
5.382684
31
0.000000
0
LINE
8
A - playing_music
62
30
10
2.423880
20
5.382684
30
0.000000
11
2.381921
21
5.471396
31
0.000000
0
LINE
8
A - playing_music
62
30
10
2.381921
20
5.471396
30
0.000000
11
2.331470
21
5.555570
31
0.000000
0
LINE
8
A - playing_music
62
30
10
2.331470
20
5.555570
30
0.000000
11
2.273010
21
5.634393
31
0.000000
0
LINE
8
A - playing_music
62
30
10
2.273010
20
5.634393
30
0.000000
11
2.207107
21
5.707107
31
0.000000
0
LINE
8
A - playing_music
62
30
10
2.207107
20
5.707107
30
0.000000
11
2.134393
21
5.773010
31
0.000000
0
LINE
8
A - playing_music
62
30
10
2.134393
20
5.773010
30
0.000000
11
2.055570
21
5.831470
31
0.000000
0
LINE
8
A - playing_music
62
30
10
2.055570
20
5.831470
30
0.000000
11
1.971397
21
5.881921
31
0.000000
0
LINE
8
A - playing_music
62
30
10
1.971397
20
5.881921
30
0.000000
11
1.882683
21
5.923880
31
0.000000
0
LINE
8
A - playing_music
62
30
10
1.882683
20
5.923880
30
0.000000
11
1.790285
21
5.956941
31
0.000000
0
LINE
8
A - playing_music
62
30
10
1.790285
20
5.956941
30
0.000000
11
1.695090
21
5.980785
31
0.000000
0
LINE
8
A - playing_music
62
30
10
1.695090
20
5.980785
30
0.000000
11
1.598017
21
5.995185
31
0.000000
0
LINE
8
A - playing_music
62
30
10
1.598017
20
5.995185
30
0.000000
11
1.500000
21
6.000000
31
0.000000
0
LINE
8
A - playing_music
62
30
10
1.500000
20
6.000000
30
0.000000
11
1.401983
21
5.995185
31
0.000000
0
LINE
8
A - playing_music
62
30
10
1.401983
20
5.995185
30
0.000000
11
1.304910
21
5.980785
31
0.000000
0
LINE
8
A - playing_music
62
30
10
1.304910
20
5.980785
30
0.000000
11
1.209715
21
5.956941
31
0.000000
0
LINE
8
A - playing_music
62
30
10
1.209715
20
5.956941
30
0.000000
11
1.117317
21
5.923880
31
0.000000
0
LINE
8
A - playing_music
62
30
10
1.117317
20
5.923880
30
0.000000
11
1.028603
21
5.881921
31
0.000000
0
LINE
8
A - playing_music
62
30
10
1.028603
20
5.881921
30
0.000000
11
0.944430
21
5.831470
31
0.000000
0
LINE
8
A - playing_music
62
30
10
0.944430
20
5.831470
30
0.000000
11
0.865607
21
5.773010
31
0.000000
0
LINE
8
A - playing_music
62
30
10
0.865607
20
5.773010
30
0.000000
11
0.792893
21
5.707107
31
0.000000
0
LINE
8
A - playing_music
62
30
10
0.792893
20
5.707107
30
0.000000
11
0.726990
21
5.634393
31
0.000000
0
LINE
8
A - playing_music
62
30
10
0.726990
20
5.634393
30
0.000000
11
0.668530
21
5.555570
31
0.000000
0
LINE
8
A - playing_music
62
30
10
0.668530
20
5.555570
30
0.000000
11
0.618079
21
5.471397
31
0.000000
0
LINE
8
A - playing_music
62
30
10
0.618079
20
5.471397
30
0.000000
11
0.576120
21
5.382684
31
0.000000
0
LINE
8
A - playing_music
62
30
10
0.576120
20
5.382684
30
0.000000
11
0.543060
21
5.290285
31
0.000000
0
LINE
8
A - playing_music
62
30
10
0.543060
20
5.290285
30
0.000000
11
0.519215
21
5.195090
31
0.000000
0
LINE
8
A - playing_music
62
30
10
0.519215
20
5.195090
30
0.000000
11
0.504815
21
5.098017
31
0.000000
0
LINE
8
A - playing_music
62
30
10
0.504815
20
5.098017
30
0.000000
11
0.500000
21
5.000000
31
-0.000000
0
LINE
8
A - playing_music
62
30
10
0.500000
20
4.000000
30
0.000000
11
1.500000
21
4.000000
31
0.000000
0
LINE
8
A - playing_music
62
30
10
1.500000
20
4.000000
30
0.000000
11
2.500000
21
4.000000
31
0.000000
0
LINE
8
A - playing_music
62
30
10
0.500000
20
5.000000
30
0.000000
11
0.500000
21
2.000000
31
0.000000
0
LINE
8
A - playing_music
62
30
10
2.500000
20
5.000000
30
0.000000
11
2.500000
21
2.000000
31
0.000000
0
LINE
8
Y - playing_music
62
40
10
5.500000
20
6.000000
30
0.000000
11
5.495185
21
5.803966
31
-0.000000
0
LINE
8
Y - playing_music
62
40
10
5.495185
20
5.803966
30
-0.000000
11
5.480785
21
5.609819
31
-0.000000
0
LINE
8
Y - playing_music
62
40
10
5.480785
20
5.609819
30
-0.000000
11
5.456940
21
5.419431
31
-0.000000
0
LINE
8
Y - playing_music
62
40
10
5.456940
20
5.419431
30
-0.000000
11
5.423880
21
5.234633
31
-0.000000
0
LINE
8
Y - playing_music
62
40
10
5.423880
20
5.234633
30
-0.000000
11
5.381921
21
5.057207
31
-0.000000
0
LINE
8
Y - playing_music
62
40
10
5.381921
20
5.057207
30
-0.000000
11
5.331470
21
4.888860
31
-0.000000
0
LINE
8
Y - playing_music
62
40
10
5.331470
20
4.888860
30
-0.000000
11
5.273010
21
4.731214
31
-0.000000
0
LINE
8
Y - playing_music
62
40
10
5.273010
20
4.731214
30
-0.000000
11
5.207107
21
4.585786
31
-0.000000
0
LINE
8
Y - playing_music
62
40
10
5.207107
20
4.585786
30
-0.000000
11
5.134393
21
4.453979
31
-0.000000
0
LINE
8
Y - playing_music
62
40
10
5.134393
20
4.453979
30
-0.000000
11
5.055570
21
4.337061
31
-0.000000
0
LINE
8
Y - playing_music
62
40
10
5.055570
20
4.337061
30
-0.000000
11
4.971397
21
4.236157
31
-0.000000
0
LINE
8
Y - playing_music
62
40
10
4.971397
20
4.236157
30
-0.000000
11
4.882683
21
4.152241
31
-0.000000
0
LINE
8
Y - playing_music
62
40
10
4.882683
20
4.152241
30
-0.000000
11
4.790285
21
4.086119
31
-0.000000
0
LINE
8
Y - playing_music
62
40
10
4.790285
20
4.086119
30
-0.000000
11
4.695090
21
4.038429
31
-0.000000
0
LINE
8
Y - playing_music
62
40
10
4.695090
20
4.038429
30
-0.000000
11
4.598017
21
4.009631
31
-0.000000
0
LINE
8
Y - playing_music
62
40
10
4.598017
20
4.009631
30
-0.000000
11
4.500000
21
4.000000
31
-0.000000
0
LINE
8
Y - playing_music
62
40
10
4.500000
20
4.000000
30
-0.000000
11
4.401983
21
4.009630
31
-0.000000
0
LINE
8
Y - playing_music
62
40
10
4.401983
20
4.009630
30
-0.000000
11
4.304910
21
4.038429
31
-0.000000
0
LINE
8
Y - playing_music
62
40
10
4.304910
20
4.038429
30
-0.000000
11
4.209715
21
4.086119
31
-0.000000
0
LINE
8
Y - playing_music
62
40
10
4.209715
20
4.086119
30
-0.000000
11
4.117317
21
4.152241
31
-0.000000
0
LINE
8
Y - playing_music
62
40
10
4.117317
20
4.152241
30
-0.000000
11
4.028604
21
4.236157
31
-0.000000
0
LINE
8
Y - playing_music
62
40
10
4.028604
20
4.236157
30
-0.000000
11
3.944430
21
4.337061
31
-0.000000
0
LINE
8
Y - playing_music
62
40
10
3.944430
20
4.337061
30
-0.000000
11
3.865607
21
4.453979
31
-0.000000
0
LINE
8
Y - playing_music
62
40
10
3.865607
20
4.453979
30
-0.000000
11
3.792893
21
4.585786
31
-0.000000
0
LINE
8
Y - playing_music
62
40
10
3.792893
20
4.585786
30
-0.000000
11
3.726990
21
4.731214
31
-0.000000
0
LINE
8
Y - playing_music
62
40
10
3.726990
20
4.731214
30
-0.000000
11
3.668530
21
4.888860
31
-0.000000
0
LINE
8
Y - playing_music
62
40
10
3.668530
20
4.888860
30
-0.000000
11
3.618079
21
5.057206
31
-0.000000
0
LINE
8
Y - playing_music
62
40
10
3.618079
20
5.057206
30
-0.000000
11
3.576120
21
5.234633
31
-0.000000
0
LINE
8
Y - playing_music
62
40
10
3.576120
20
5.234633
30
-0.000000
11
3.543060
21
5.419431
31
-0.000000
0
LINE
8
Y - playing_music
62
40
10
3.543060
20
5.419431
30
-0.000000
11
3.519215
21
5.609819
31
-0.000000
0
LINE
8
Y - playing_music
62
40
10
3.519215
20
5.609819
30
-0.000000
11
3.504815
21
5.803966
31
-0.000000
0
LINE
8
Y - playing_music
62
40
10
3.504815
20
5.803966
30
-0.000000
11
3.500000
21
6.000000
31
0.000000
0
LINE
8
Y - playing_music
62
40
10
4.500000
20
4.000000
30
0.000000
11
4.500000
21
2.000000
31
0.000000
0
3DFACE
8
triangle - playing_music
62
50
10
2.598076
20
-3.500000
30
0.500000
11
2.598076
21
-3.500000
31
-0.500000
12
-1.732051
22
-6.000000
32
-0.500000
13
-1.732051
23
-6.000000
33
0.500000
0
3DFACE
8
triangle - playing_music
62
50
10
-1.732051
20
-6.000000
30
0.500000
11
-1.732051
21
-6.000000
31
-0.500000
12
-1.732051
22
-1.000000
32
-0.500000
13
-1.732051
23
-1.000000
33
0.500000
0
3DFACE
8
triangle - playing_music
62
50
10
-1.732051
20
-1.000000
30
0.500000
11
-1.732051
21
-1.000000
31
-0.500000
12
2.598076
22
-3.500000
32
-0.500000
13
2.598076
23
-3.500000
33
0.500000
0
3DFACE
8
triangle - playing_music
62
50
10
-1.732051
20
-6.000000
30
0.500000
11
-1.732051
21
-1.000000
31
0.500000
12
2.598076
22
-3.500000
32
0.500000
13
2.598076
23
-3.500000
33
0.500000
0
3DFACE
8
triangle - playing_music
62
50
10
-1.732051
20
-6.000000
30
-0.500000
11
2.598076
21
-3.500000
31
-0.500000
12
-1.732051
22
-1.000000
32
-0.500000
13
-1.732051
23
-1.000000
33
-0.500000
  0
ENDSEC
 0
EOF
